Pink Floyd Guitar Tabs and More @ PinkFloydTabs.com

Another Brick in the Wall Part 1 Bass Tab

Another Brick in the Wall Part 1 Tab - Pink Floyd

Verse
  (0:18)     play 6x (each note rings for 8 beats)
G|-------|  -------|-------|
D|-------|  -------|-------|
A|-----3-|  -5-----|--(5)--|
E|-3/5---|  -------|-------|

Heavy guitar comes in:
  (0:57)
G|------------|--------|--------|--------|--------|--------|
D|------------|--------|--------|--------|--------|--------|
A|------------|--------|--------|--------|-5------|-(5)----|
E|--1/3-------|-(3)----|-3------|-(3)----|--------|--------|

Play 2x
G|----------|---------|--------|--------|
D|----------|---------|--------|--------|
A|----------|--3------|-5------|-(5)----|
E|--1-------|---------|--------|--------|

Outro Riff:
(1:22) Play 2x
G|----------|---------|    |-----------|-----------|
D|----------|---------|    |-----------|-----------|
A|-3-5------|-(5)-----|    |-3-5---3-5-|-3-5---3-5-|
E|----------|---------|    |-----------|-----------|

Play 4x
G|------------|   ------------|-----------|---------------|-------|
D|------------|   ------------|-------7---|---------------|-------|
A|-0-5---3-5--|   --0-5-------|-0-5-----5-|--0-5---5-5----|-3-5---|
E|------------|   ------------|-----------|---------------|-------|


Outro Riff repeats (2:00):
G|-----|-------------|-------------|
D|-----|-------------|-----7-------|
A|-0-3-|-5---3-5---3-|-5-----5---3-|
E|-----|-------------|-------------|

--------------|-------------|------------|
---7----------|-----7-------|----7-------|
-5---0-3-5--3-|-5-----5---3-|-5----0--3--|
--------------|-------------|------------|

Repeat these 16 bars until fade
G|-------------|-------------|-------------|------------| 
D|-----7-------|-----7-------|-------------|----7-------| 
A|-5-----5---3-|-5-----5---3-|-5---3-5---3-|-5----0--3--|
E|-------------|-------------|-------------|------------|
each 4th bar is a different rhythm

G|-------------|-------------|-------------|------------|
D|-----------7-|-------------|-------------|----7-------|
A|-5---3-5-----|-5---3-5---3-|-5---3-5---3-|-5----0--3--|
E|-------------|-------------|-------------|------------|

G|-------------|-------------|-------------|------------|
D|-------------|-----------7-|-------------|----7-------|
A|-5---3-5---3-|-5---3-5-----|-5---3-5---3-|-5----0--3--|
E|-------------|-------------|-------------|------------|

G|-------------|-------------|-------------|------------|
D|-------------|-------------|-------------|----7-------|
A|-5---3-5---3-|-5---3-5---3-|-5---3-5---3-|-5----0--3--|
E|-------------|-------------|-------------|------------|

The final bars just exchange the C (3rd fret) and A (7th fret) in the first three bars of this rhythm.  

key:
/ or \ - slides
()     - Ringing note 
Rate this tab: 1 Star2 Stars3 Stars4 Stars5 Stars (2 votes, average: 4.00 out of 5)
Tab filed under: The Wall, Bass Tabs
Lyrics for This Tab: Another Brick in the Wall Part 1 Lyrics by Pink Floyd

Talk about Another Brick in the Wall Part 1 Bass Tab

Comment on This Tab

Another Brick in the Wall Part 1 Related Tabs