Pink Floyd Guitar Tabs and More @ PinkFloydTabs.com

Another Brick in the Wall Part 2 Bass Tab


Drop D Tuning:

Guitar Tuner from GTDB gtdb.org

Another Brick in the Wall part 2 Tab - Pink Floyd

NOTE: This tab uses Drop D Tuning.

You can tune your guitar accordingly with the Drop D tuner above.

TUNING: DADG (Drop D)

0:05
g------------------|
d------------------|
a------------------|
d-0~~~~~~~~~~~~~~~~|

0:15        (x4)
g-------------------|
d-------------------|
a----3-5--5--5-0--3-|
d-0-----------------|

0:33       0:36     0:38
g-------------------------------------|
d-------------------------------------|
a-------------------------------------|
d-5~~~~~~~~5~~~~~~~~5~~~~5~~~~5-5-5-5-|

0:42
g-------------------|
d-------------------|
a----3-5--5--5-0--3-|
d-0-----------------|

0:47       0:49
g-------------------|
d-------------------|
a-------------------|
d-1~~~~~~~~3~~~~~~~~|

0:52
g-------------------|
d-------------------|
a----3-5--5--5-0--3-|
d-0-----------------|

0:56       0:59
g-------------------|
d-------------------|
a-------------------|
e-1~~~~~~~~3~~~~~~~~|

1:10
g------------------|
d------------------|
a------------------|
d-0~~~~~~~~~~~~~~~~|

1:20       (x4)
g-------------------|
d-------------------|
a----3-5--5--5-0--3-|
d-0-----------------|

1:38       1:40     1:43
g-------------------------------------|
d-------------------------------------|
a-------------------------------------|
d-5~~~~~~~~5~~~~~~~~5~~~~5~~~~5-5-5-5-|

1:47
g-------------------|
d-------------------|
a----3-5--5--5-0--3-|
d-0-----------------|

1:52       1:54
g-------------------|
d-------------------|
a-------------------|
e-1~~~~~~~~3~~~~~~~~|

1:57
g-------------------|
d-------------------|
a----3-5--5--5-0--3-|
d-0-----------------|

2:01       2:04
g-------------------|
d-------------------|
a-------------------|
e-1~~~~~~~~3~~~~~~~~|

2:06
g-------------------|
d-------------------|
a----3-5--5--5-0--3-|
d-0-----------------|

The guitar solo alters between:

g----------------|     |-------------------|
d----------------|     |-------------------|
a----3-5--0--3-5-| and |----3-5--5--5-0--3-|
d-0--------------|     |-0-----------------|  

Thats it.
Rate this tab: 1 Star2 Stars3 Stars4 Stars5 Stars (3 votes, average: 4.67 out of 5)
Tab filed under: The Wall, Bass Tabs
Lyrics for This Tab: Another Brick in the Wall Part 2 Lyrics by Pink Floyd

Talk about Another Brick in the Wall Part 2 Bass Tab

1 Comment on This Tab

  1. For more on different guitar tunings and other Pink Floyd tabs on this site that use them, visit our Alternate Tunings page.

Comment on This Tab

Another Brick in the Wall Part 2 Related Tabs