Pink Floyd Guitar Tabs and More @ PinkFloydTabs.com

Astronomy Domine Bass Tab

Astronomy Domine Tab - Pink Floyd

Intro: No Bass	

1st Verse 0:42	
G|--------------------|--------------------|--------------------|	
D|--------------------|--------------------|--------------------|	
A|--7--7--7--7--7--7--|--7--7--7--7--7--7--|--7--7--7--7--7--7--|	
E|--------------------|--------------------|--------------------|	

G|--------------------|--------------------|--------------------|	
D|--------------------|--------------------|--5--5--5--5--5--5--|	
A|--6--6--6--6--6--6--|--6--6--6--6--6--6--|--------------------|	
E|--------------------|--------------------|--------------------|	

G|--------------------|--------------------|--------------------|	
D|--5--5--5--5--5--5--|--5--5--5--5--5--5--|--5--5--5--5--5--6--|	
A|--------------------|--------------------|--------------------|	
E|--------------------|--------------------|--------------------|	

G|--------------------|--------------------|--------------------|	
D|--7--7--7--7--7--7--|--7--7--7--7--7--7--|--7--7--7--7--7--7--|	
A|--------------------|--------------------|--------------------|	
E|--------------------|--------------------|--------------------|	

G|--------------------|--------------------|--------------------|	
D|--7--7--7--7/10--10-|--14-14-14-14-14-14-|--14-14-14-14-14-14-|	
A|--------------------|--------------------|--------------------|	
E|--------------------|--------------------|--------------------|	

G|--------------------|--------------------|--------------------|	
D|--14-14-14-14-14-14-|--14-14-14-14-14-14-|--13-13-13-13-13-13-|	
A|--------------------|--------------------|--------------------|	
E|--------------------|--------------------|--------------------|	
1:16	
G|--------------------|-----------------8--|-----9--------8-----|	
D|--13-13-13-13\------|--5--5--5--5--6-----|--7-----7--6-----6--|	
A|--------------------|--------------------|--------------------|	
E|--------------------|--------------------|--------------------|	

G|-----7--------6-----|-----5--------4-----|-----3--------0-----|	
D|--5-----5--4-----4--|--3-----3--2-----2--|--1-----1--0-----0--|	
A|--------------------|--------------------|--------------------|	
E|--------------------|--------------------|--------------------|	

G|-----7--------6-----|-----5--------4-----|-----3--------0-----|	
D|--5-----5--4-----4--|--3-----3--2-----2--|--1-----1--0-----0--|	
A|--------------------|--------------------|--------------------|	
E|--------------------|--------------------|--------------------|	

G|--------------------|-----7--5----5h7--0-|-----8--6----6h8--6-|	
D|-----7--7-----7--7--|-----------7--------|-----------8--------|	
A|--5--------5--------|--5-----------------|--6-----------------|	
E|--------------------|--------------------|--------------------|	

G|--------------------|	
D|--9-----------------| Rest 5 measures	
A|----7---------------|	
E|--------------------|	

G|-------------------|--------------------|--------------------|------------------|	
D|-------------------|--------------------|--------------------|------------------|	
A|-6--6--6--6--6--6--|--6--6--6--6--6--6--|--6--6--6--6--6--6--|-6--6--6--6--6--6-|	
E|-------------------|--------------------|--------------------|------------------|	

G|-------------------|--------------------|--------------------|------------------|	
D|-5--5--5--5--5--5--|--5--5--5--5--5--5--|--5--5--5--5--5--5--|-5--5--5--5--5--6-|	
A|-------------------|--------------------|--------------------|------------------|	
E|-------------------|--------------------|--------------------|------------------|	

G|-------------------|--------------------|--------------------|------------------|	
D|-7--7--7--7--7--7--|--7--7--7--7--7--7--|--7--7--7--7--7--7--|-7--7--7--7--7--7-|	
A|-------------------|--------------------|--------------------|------------------|	
E|-------------------|--------------------|--------------------|------------------|	

G|-------------------|--------------------|--------------------|------------------|	
D|-------------------|--------------------|--------------------|----------17\-----|	
A|-7-----------------|-(7)----------------|-(7)----------------|------------------|	
E|-------------------|--------------------|--------------------|------------------|	

G|-------------------|--------------------|--------------------|------------------|	
D|-------------------|--------------------|--------------------|------------------|	
A|-6--6--6--6--6--6--|--6--6--6--6--6--6--|--6--6--6--6--6--6--|-6--6--6--6--6--6-|	
E|-------------------|--------------------|--------------------|------------------|	

G|-12-12-12-12-12-12--|-12-12-12-12-12-12-|-12-12-12-12-12-12--|-12-12-12-12-12-13|	
D|--------------------|-------------------|--------------------|------------------|	
A|--------------------|-------------------|--------------------|------------------|	
E|--------------------|-------------------|--------------------|------------------|	

G|-14-14-14-14-14-14--|-14-14-14-14-14-14-|-14\----------------|-4\------2-2-2--0-|	
D|--------------------|-------------------|--------------------|------------------|	
A|--------------------|-------------------|--------------------|------------------|	
E|--------------------|-------------------|--------------------|------------------|	

G|-------------------|--------------------|--------------------|------------------|	
D|-13-13-13-13-13-13-|-13-13-13-13-13-13--|--13-13-13-13-13-13-|-13-13-13-13-13-13|	
A|-------------------|--------------------|--------------------|------------------|	
E|-------------------|--------------------|--------------------|------------------|	

G|-------------------|--------------------|--------------------|------------------|	
D|--5--5--5--5--5--5-|--5--5--5--5--5--5--|--5--5--5--5--5--5--|-5--5--5--5--5--6-|	
A|-------------------|--------------------|--------------------|------------------|	
E|-------------------|--------------------|--------------------|------------------|	

G|-------------------|--------------------|--------------------|------------------|	
D|--7--7--7--7--7--7-|--7--7--7--7--7--7--|--7--7--7--7--7--7--|-7--7--7--7--7--7-|	
A|-------------------|--------------------|--------------------|------------------|	
E|-------------------|--------------------|--------------------|------------------|	

G|-------------------|--------------------|-----16-16----16-16-|----16-16----16-16|	
D|-14-14-14-14-14-14-|--14-14-14-14-14-14-|--14-------14-------|-14-------14------|	
A|-------------------|--------------------|--------------------|------------------|	
E|-------------------|--------------------|--------------------|------------------|	

G|-------------------|--------------------|-----15-15----15-15-|----15-15----15---|	
D|-13-13-13-13-13-13-|--13-13-13-13-13-13-|--13-------13-------|-13-------13----13|	
A|-------------------|--------------------|--------------------|------------------|	
E|-------------------|--------------------|--------------------|------------------|	

G|-------------------|--------------------|--------------------|------------------|	
D|-5--5--5--5--5--5--|--5--5--5--5--5--5--|--5--5--5--5--5--5--|-5--5--5--5--5--6-|	
A|-------------------|--------------------|--------------------|------------------|	
E|-------------------|--------------------|--------------------|------------------|	

G|-------------------|--------------------|--------------------|------------------|	
D|-7--7--7--7--7--7--|--7--7--7--7--7--7--|--7--7--7--7--7--7--|-7--7--7--7--7--7-|	
A|-------------------|--------------------|--------------------|------------------|	
E|-------------------|--------------------|--------------------|------------------|	

G|-------------------|--------------------|--------------------|------------------|	
D|-------------------|--------------------|--------------------|------------------|	
A|-7--7--7--7--7--7--|--7--7--7--7--7--7--|--7--7--7--7--7--7--|-7--7--7--7--7--7-|	
E|-------------------|--------------------|--------------------|------------------|	

G|-------------------|--------------------|--------------------|------------------|	
D|-------------------|--------------------|--5--5--5--5--5--5--|-5--5--5--5--5--5-|	
A|-6--6--6--6--6--6--|--6--6--6--6--6--6--|--------------------|------------------|	
E|-------------------|--------------------|--------------------|------------------|	

G|------------------|--------------------|-----9--------8-----|-----7--------6----|	
D|-5--5--5--5--5--5-|--5--5--5--5--5--6--|--7-----7--6-----6--|--5-----5--4-----4-|	
A|------------------|--------------------|--------------------|-------------------|	
E|------------------|--------------------|--------------------|-------------------|	

G|-----5--------4-----|-----3--------0-----|	
D|--3-----3--2-----2--|--1-----1--0-----0--|	
A|--------------------|--------------------|	
E|--------------------|--------------------|	

G|-----9--------8-----|-----7--------6----|	
D|--7-----7--6-----6--|--5-----5--4-----4-|	
A|--------------------|-------------------|	
E|--------------------|-------------------|	

G|-----5--------4-----|-----3--------0-----|	
D|--3-----3--2-----2--|--1-----1--0-----0--|	
A|--------------------|--------------------|	
E|--------------------|--------------------|	

G|-------------------|----------------------|------------------|-10----10----10----|	
D|---------12-10-----|-10h12----10h12-10----|---------12-10----|----12----12----12-|	
A|---------------12--|-------------------12-|---------------12-|-------------------|	
E|--10---------------|----------------------|--10--------------|-------------------|	

G|-------------------|----------------------|------------------|-10----10----10----|	
D|---------12-10-----|-10h12----10h12-10----|---------12-10----|----12----12----12-|	
A|---------------12--|-------------------12-|---------------12-|-------------------|	
E|--10---------------|----------------------|--10--------------|-------------------|	

G|-------------------|----------------------|------------------|-10----10----10----|	
D|---------12-10-----|-10h12----10h12-10----|---------12-10----|----12----12----12-|	
A|---------------12--|-------------------12-|---------------12-|-------------------|	
E|--10---------------|----------------------|--10--------------|-------------------|	

G|-------------------|----------------------|------------------|-10----10----10----|	
D|---------12-10-----|-10h12----10h12-10----|---------12-10----|----12----12----12-|	
A|---------------12--|-------------------12-|---------------12-|-------------------|	
E|--10---------------|----------------------|--10--------------|-------------------|	

| / slide up	
| \ slide down	
| h hammer-on	
| p pull-off	
| ~ vibrato	
| + harmonic	
| x Mute note	
Rate this tab: 1 Star2 Stars3 Stars4 Stars5 Stars
Lyrics for This Tab: Astronomy Domine Lyrics by Pink Floyd

Talk about Astronomy Domine Bass Tab

Comment on This Tab

Astronomy Domine Related Tabs