Pink Floyd Guitar Tabs and More @ PinkFloydTabs.com

Atom Heart Mother Bass Tab

Atom Heart Mother Tab - Pink Floyd

Father's Shout                                                          
|--------------------------|-----------------------|--------------------
|--------------------------|-----------------------|--------------------
|--------------------------|-----3--1-----------3--|--------------------
|--0-----0-----3-----3-----|--1--------3--0--0-----|--0-----0-----3-----

------|-----------------------|--------------------------|--------------
------|-----------------------|--------------------------|--------------
------|-----3--1-----------3--|--------------------------|--------2-----
---3--|--1--------3--0--0-----|--0-----0-----3-----3-----|--5--5--------

------|-----------------------|--------------------------|--------------
------|-----------------------|--------------------------|--------------
2--2--|-----------------------|--------------------------|--------------
------|--0-----0-----3-----3--|--1-----1-----1-----1-----|--1-----1-----

                               Sounds, motorcycle
---------------|-----------|------------------------------|-------------
---------------|-----------|------------------------------|-------------
---------------|-----------|------------------------------|-------------
---1-----1-----|--0--------|------------------------------|---0---------

------------------|-----------------------|-----------------------|-----
------------------|-----------------------|-----------------------|-----
------------------|-----3--1-----------3--|-----------------------|-----
0-----3-----3-----|--1--------3--0--0-----|--0-----0-----3-----3--|-----

---------------------|--------------------------|-----------------|-----
---------------------|--------------------------|-----------------|-----
---3--1-----------3--|--------------------------|--------2--2--2--|-----
1--------3--0--0-----|--0-----0-----3-----3-----|--5--5-----------|-----

---------------------|--------------------------|-----------------------
---------------------|--------------------------|-----------------------
---------------------|--------------------------|-----------------------
0-----0-----3-----3--|--1-----1-----1-----1-----|--1-----1-----1--------

                   Breast Milky (2:52)
---|-----------|-----------------16--12------16--12------|--------------
---|-----------|---14-----14-------------14----------14--|--14----------
---|-----------|-----------------------------------------|--------------
1--|--0--------|-----------------------------------------|--------------

-------16--12------16--12------|------------16--12------16--12----------
14-------------14----------14--|--14----------------14----------14------
-------------------------------|----------------------------------------
-------------------------------|----------------------------------------

|------------------------------------|----------------------------------
|------------14--10------14--10------|------------12--9------12--9------
|--12----------------12----------12--|--10---------------10-------------
|------------------------------------|----------------------------------

----|------------------------------------|------------------------------
----|------------16--12------16--12------|------------13--9------13-----
10--|--14----------------14----------14--|--11---------------11---------
----|------------------------------------|------------------------------

-------|------------------------------------|----------------|----------
9------|------------15--12------15--12------|----------------|--12------
---11--|--13----------------13----------13--|--11-----11-----|----------
-------|------------------------------------|----------------|----------

---------------------|-------------------------------|------------------
---12-----14-----14--|--14--------14--14--14-----14--|------------------
---------------------|-------------------------------|--12--------------
---------------------|-------------------------------|------------------

|-------------------------------|---------------|-----------------------
|-------------------------------|---------------|-----------------------
|--10--------10--10--10-----10--|--14-----------|--11--------11--11-----
|-------------------------------|---------------|-----------------------

-----------|---------------|----------------|----------------------|----
-----------|---------------|----------------|----------------------|----
11-----11--|--13-----------|----------------|--12--12--14--14--14--|----
-----------|---------------|--11-----11-----|----------------------|----

guitar comes in
----------------------|---------------------|---------------------|-----
----------14--14--14--|---------------------|---------------------|-----
----------------------|--12-----12--12--12--|--10-----10--10--10--|-----
12--------------------|---------------------|---------------------|-----

--------------------------|---------------------|-----------------------
-------16--12-------------|---------------------|-----------------------
14-------------14--8--10--|--11-----11--11--11--|--13-----13--13--13----
--------------------------|---------------------|-----------------------

----|----------------------------|---------------------|----------------
----|----------------------------|---------------------|----------------
13--|----------------------------|--12-----12--12--12--|--14--14--14----
----|--11-----11--11-----11--11--|---------------------|----------------

----|---------------------------|---------------------|-----------------
----|-------14----------14--14--|---------------------|-----------------
14--|---------------------------|--12-----12--12--12--|--10-----10------
----|---12------12--12----------|---------------------|-----------------

--------|---------------------|-----------------|-----------------------
--------|---------------------|------13--9------|-----------------------
10--10--|--14-----14--14--14--|--11---------11--|--13-----13--13--13----
--------|---------------------|-----------------|-----------------------

|----------------------------|------------------------------|-----------
|----------------------------|------------------------------|-----------
|----------------------------|--12-----12-----14-----14-----|-----------
|--11-----11--11-----11--11--|------------------------------|---12------

---------------|----------------|-----------------|---------------------
---------------|----------------|-----------------|---------------------
---------------|--12--------12--|--10-----10--10--|--14-----14--14------
---12--12--12--|----------------|-----------------|---------------------

----|------------------------|-----------------------------|------------
----|------------------------|-----------------------------|------------
14--|--11-----11--11-----11--|--13--13-----13--13--13--13--|------------
----|------------------------|-----------------------------|--11--------

-------------------|----------------------------------------------------
-------------------|----------------------------------------------------
-------------------|--12-----12-----14-----14--14-----------------------
11--11-----11--11--|----------------------------------------------------

Mother Fore (5:23)      4x                                   18x        
|-----------------------|---------------|----9---------------|----------
|-*--------------------*|---------------|-*-----------------*|----------
|-*--7-----------------*|---------------|-*--------------7--*|---0------
|-----------------------|---------------|----------0---------|----------

------------|-----------------|-----------|-----------|-----------------
------------|-----------------|-----------|-----------|-----------------
---0--0--0--|--0-----0--0--0--|--7-----7--|--7-----7--|--0-----0--0-----
------------|-----------------|-----0-----|-----0-----|-----------------

                  12x                                                   
---|--------------|------------------|-----------------|-----------|----
---|-*-----------*|------------------|-----------------|-----------|----
0--|-*--7-----7--*|---0-----0--0--0--|--0-----0--0--0--|--7-----7--|----
---|-------0------|------------------|-----------------|-----0-----|----

                                                            18x         
---------|-----------------|-----------------|--------------|-----------
---------|-----------------|-----------------|-*-----------*|-----------
7-----7--|--0-----0--0--0--|--0-----0--0--0--|-*--7-----7--*|---0-------
---0-----|-----------------|-----------------|-------0------|-----------

---------|-----------------|--------------------------|-----------------
---------|-----------------|--------------------------|-----------------
0--0--0--|--0-----0--0--0--|--7-----7-----7--7--7--7--|--0-----0--0-----
---------|-----------------|-----0--------------------|-----------------

---|-----------------|--------------------------|-----------------|-----
---|-----------------|--------------------------|-----------------|-----
0--|--0-----0--0--0--|--7-----7-----7--7--7--7--|--0-----0--0--0--|-----
---|-----------------|-----0--------------------|-----------------|-----

---------------|--9--------9--------9--------9--------|-----------------
---------------|--------------------------------------|-----------------
0-----0--0--0--|--------7--------7--------7--------7--|-----------------
---------------|-----0--------0--------0--------0-----|-----------------

Funky Dung (10:12)
------------|--------------|----------12-----12--12--12--12--10---------
14----------|--14----------|--14---------------------------------12-----
------------|--------------|------10------------------------------------
----14--12--|------14--12--|--------------------------------------------

                                             6x                         
|------------12-----12--12--12--12--10-------|-----------12-------------
|-*-------------------------------------12--*|------------------12------
|-*--10--10---------------------------------*|---10--10-----------------
|--------------------------------------------|--------------------------

10------12------|----------12-----12--10----------|------------12-------
----12------12--|-------------------------12--12--|-*-------------------
----------------|--10--10-------------------------|-*--10--10-----------
----------------|---------------------------------|---------------------

                         14x                                            
12--12--12--12--10-------|-----------12------10------10------10h12------
--------------------12--*|---------------12------12------12-------------
------------------------*|---10--10-------------------------------------
-------------------------|----------------------------------------------

|----------12-----12--12--12--12--10------|----------12-----12--12------
|-------------------------------------12--|-----------------------------
|--10--10---------------------------------|--10--10---------------------
|-----------------------------------------|-----------------------------

--------|------------12-----12--12--12--12--10-------|-----------12-----
12--12--|-*-------------------------------------12--*|------------------
--------|-*--10--10---------------------------------*|---10--10---------
--------|--------------------------------------------|------------------

-------10------10------10h12--|----------12---------12--|---------------
---12------12------12---------|-----------------10------|-*-------------
------------------------------|--10--10-----------------|-*--10--10-----
------------------------------|-------------------------|---------------

                                8x                                      
12-----12--12--12--12--10-------|-----------12---------10------10-------
---------------------------12--*|------------------12------12-----------
-------------------------------*|---10--10------------------------------
--------------------------------|---------------------------------------

----10h12--|---------12-----|------12-----12--12--12--12--10------------
12---------|----------------|---------------------------------12--------
-----------|--10------------|--10---------------------------------------
-----------|----------------|-------------------------------------------

                                 4x                                     
|------------12-----12--10-------|-----------12-----10h12------|--------
|-*-------------------------12--*|-------------------------12--|--------
|-*--10--10---------------------*|---10--10--------------------|--10----
|--------------------------------|-----------------------------|--------

----12------10------10h12--|----------12-----12--12--12--12--10---------
--------12------12---------|-------------------------------------12-----
10-------------------------|--10--10------------------------------------
---------------------------|--------------------------------------------

|----------12------10------10------10h12--|----------12-----12--10------
|--------------12------12------12---------|-----------------------------
|--10--10---------------------------------|--10--10---------------------
|-----------------------------------------|-----------------------------

----12--10------|----------12---------10------10------10h12--|----------
12----------12--|-----------------12------12------12---------|----------
----------------|--10--10------------------------------------|----------
----------------|--------------------------------------------|----------

singing starts                                                          
--------12-----12--12----------|----------12-----12--10------12--|------
-----------------------12--12--|-------------------------12------|------
10--10-------------------------|--12--12-------------------------|------
-------------------------------|---------------------------------|------

--------12-----12--12--12--12--10------|------------12-----12--10-------
-----------------------------------12--|-*------------------------------
10--10---------------------------------|-*--10--10----------------------
---------------------------------------|--------------------------------

     6x                                                                 
-----|-----------12------10------10------10h12--|----------12-----12----
12--*|---------------12------12------12---------|-----------------------
----*|---10--10---------------------------------|--10--10---------------
-----|------------------------------------------|-----------------------

                                             3x                         
10----------|------------12-----12--10-------|-----------12-----12------
----12--12--|-*-------------------------12--*|--------------------------
------------|-*--10--10---------------------*|---10--10-----------------
------------|--------------------------------|--------------------------

12--10----------|----------12------10------10------10h12--|-------------
--------12--12--|--------------12------12------12---------|-*-----------
----------------|--10--10---------------------------------|-*--10-------
----------------|-----------------------------------------|-------------

                                    5x                                  
----12-----12--12--12--12--10-------|-----------12--------|-------------
-------------------------------12--*|---------------------|-------------
10---------------------------------*|---10--10------------|--8--8-------
------------------------------------|---------------------|-------------

                                         8x                             
10--------|--------10--------|-----------|------------------------------
----------|------------------|-*--------*|------------------------------
----------|--8--8------------|-*--7-----*|------------------------------
----------|------------------|-----------|---0-----0-----3-----3--------

|-----------------------|-----------------------|-----------------------
|-----------------------|-----------------------|-----------------------
|-----3--1-----------3--|-----------------------|-----3--1--------------
|--1--------3--0--0-----|--0-----0-----3-----3--|--1--------3--0--0-----

---|--------------------------|-----------------|-----------------------
---|--------------------------|-----------------|-----------------------
3--|--------------------------|--------2--2--2--|-----------------------
---|--0-----0-----3-----3-----|--5--5-----------|--0-----0-----3--------

---|--------------------------|--------------------------|--------------
---|--------------------------|--------------------------|--------------
---|--------------------------|--------------------------|--------------
3--|--1-----1-----1-----1-----|--1-----1-----1-----1-----|--0-----------

       Mind Your Throats Please (15:28)
----|------------------------------------------------|------------------
----|------------------------------------------------|------------------
----|------------------------------------------------|------------------
----|------------------------------------------------|------------------

Remergence (19:13)
|--------------------------|-----------------------|--------------------
|--------------------------|-----------------------|--------------------
|--------------------------|-----3--1-----------3--|--------------------
|--0-----0-----3-----3-----|--1--------3--0--0-----|--0-----0-----3-----

------|-----------------------|--------------------------|--------------
------|-----------------------|--------------------------|--------------
------|-----3--1-----------3--|--------------------------|--------2-----
---3--|--1--------3--0--0-----|--0-----0-----3-----3-----|--5--5--------

------|-----------------------|--------------------------|--------------
------|-----------------------|--------------------------|--------------
2--2--|-----------------------|--------------------------|--------------
------|--0-----0-----3-----3--|--1-----1-----1-----1-----|--1-----1-----

---------------|--------------|-----------------16--12------16--12------
---------------|--------------|---14-----14-------------14--------------
---------------|--------------|-----------------------------------------
---1-----1-----|--0-----------|-----------------------------------------

----|----------------16--12------16--12------|------------16--12--------
14--|--14-----14-------------14----------14--|--14----------------14----
----|----------------------------------------|--------------------------
----|----------------------------------------|--------------------------

16--12------|------------------------------------|----------------------
--------14--|------------14--10------14--10------|------------12--9-----
------------|--12----------------12----------12--|--10------------------
------------|------------------------------------|----------------------

---------------|------------------------------------|-------------------
----12--9------|------------16--12------16--12------|------------13-----
10---------10--|--14----------------14----------14--|--11---------------
---------------|------------------------------------|-------------------

------------------|------------------------------------|----------------
9------13--9------|------------15--12------15--12------|----------------
---11---------11--|--13----------------13----------13--|--11-----11-----
------------------|------------------------------------|----------------

---|---------------------------|--------------------------------|-------
---|--12-----12-----14-----14--|--14--------14--14--14-----14---|*------
---|---------------------------|--------------------------------|*------
---|---------------------------|--------------------------------|-------

(with slight variations)
------------------------|---------------------|-------------------------
----14----------14--14--|---------------------|-------------------------
------------------------|--12-----12--12--12--|--10-----10--10--10------
12------12--12----------|---------------------|-------------------------

|---------------------|-----------------|---------------------|---------
|---------------------|------13--9------|---------------------|---------
|--14-----14--14--14--|--11---------11--|--13-----13--13--13--|---------
|---------------------|-----------------|---------------------|--11-----

                                                      4x                
----------------------|-------------------------------|-----------------
----------------------|------------------------------*|-----------------
----------------------|--12-----12-----14-----14-----*|-----------------
---11--11-----11--11--|-------------------------------|---0-----0-------

------------|-----------------------|-----------------------|-----------
------------|-----------------------|-----------------------|-----------
------------|-----3--1-----------3--|-----------------------|-----3-----
3-----3-----|--1--------3--0--0-----|--0-----0-----3-----3--|--1--------

---------------|--------------------------|-----------------|-----------
---------------|--------------------------|-----------------|-----------
1-----------3--|--------------------------|--------2--2--2--|-----------
---3--0--0-----|--0-----0-----3-----3-----|--5--5-----------|--0--------

---------------|--------------------------|-----------------------------
---------------|--------------------------|-----------------------------
---------------|--------------------------|-----------------------------
0-----3-----3--|--1-----1-----1-----1-----|--1-----1-----1-----1--------

|--------------------------|-----------------------|--------------------
|--------------------------|-----------------------|--------------------
|--------------------------|-----3--1-----------3--|--------------------
|--0-----0-----3-----3-----|--1--------3--0--0-----|--0-----0-----3-----

------|-----------------------|--------------------------|--------------
------|-----------------------|--------------------------|--------------
------|-----3--1-----------3--|--------------------------|--------2-----
---3--|--1--------3--0--0-----|--0-----0-----3-----3-----|--5--5--------

------|-----------------------|--------------------------|--------------
------|-----------------------|--------------------------|--------------
2--2--|-----------------------|--------------------------|--------------
------|--0-----0-----3-----3--|--1-----1-----1-----1-----|--1-----1-----

                                    (23:42)-end
------------------|--------------|--------------------|-----------------
------------------|--------------|--------------------|-----------------
------------------|--7-----------|--------------------|-----------------
---1-----1--------|--------------|--------------------|-----------------
Rate this tab: 1 Star2 Stars3 Stars4 Stars5 Stars (1 votes, average: 5.00 out of 5)
Tab filed under: Atom Heart Mother, Bass Tabs
Lyrics for This Tab: Atom Heart Mother Lyrics by Pink Floyd

Talk about Atom Heart Mother Bass Tab

Comment on This Tab

Atom Heart Mother Related Tabs