Pink Floyd Guitar Tabs and More @ PinkFloydTabs.com

Bike Bass Tab

Bike Tab - Pink Floyd	
	
Verse #1	
G|-----------------------------------------------------------------|	
D|-----5---------5-----------10--------10------10--------10--------|	
A|-----------------------------------------------------------------|	
E|-5--------5---------10---------10-------10-------10----------0---|	

G|--------------------------|	
D|-0---------0-----------5--|	
A|----------------32--------|	
E|------0-----------5-------|	

G|-------------------|	
D|--------5----------|	
A|-------------------|	
E|---5---------------|	

Chorus #1	
G|-----------------------------------------------|	
D|-----------------------------------------------|	
A|-----------------------------------------------|	
E|-0-----------0---------------<0>---------------|	
Tied	

Verse #2	
G|----------------------------------------------------------------|	
D|-----5---------5-----------10--------10------10--------10-------|	
A|----------------------------------------------------------------|	
E|-5--------5---------10---------10-------10-------10----------0--|	

G|--------------------------|	
D|-0---------0-----------5--|	
A|----------------32--------|	
E|------0-----------5-------|	

G|-------------------|	
D|--------5----------|	
A|-------------------|	
E|---5---------------|	

Chorus #2	
G|-----------------------------------------------|	
D|-----------------------------------------------|	
A|-----------------------------------------------|	
E|-0-----------0---------------<0>---------------|	
Tied	

Verse #3	
G|----------------------------------------------------------------|	
D|-----5---------5-----------10--------10------10--------10-------|	
A|----------------------------------------------------------------|	
E|-5--------5---------10---------10-------10-------10----------0--|	

G|--------------------------|	
D|-0---------0-----------5--|	
A|----------------32--------|	
E|------0-----------5-------|	

G|-------------------|	
D|--------5----------|	
A|-------------------|	
E|---5---------------|	

Chorus #3	
G|--------------------------------------------|	
D|------12---------12----------12----------12-|	
A|--------------------------------------------|	
E|-12--------12----------12----------12-------|	

-------------------------------------------|	
----------12---------12---------12---------|	
-------------------------------------------|	
---12----------12----------12----------12--|	

G|--------------------------------------------|--	
D|-12---------12-----------12-------------12--|--	
A|--------------------------------------------|--	
E|------12----------12-------------12---------|--	

-------------------------------------------|	
-------12--------12--------12--------------|	
-------------------------------------------|	
--12--------12--------12------1212--12-----|	

Verse #5	
G|---------------------------------------------------------------|	
D|-----5---------5-----------10--------10------10--------10------|	
A|---------------------------------------------------------------|	
E|-5--------5---------10---------10-------10-------10----------0-|	

G|--------------------------|	
D|-0---------0-----------5--|	
A|----------------32--------|	
E|------0-----------5-------|	

G|-------------------|	
D|--------5----------|	
A|-------------------|	
E|---5---------------|	

Final Verse [Cut Speed in half]	
G|----------------------------------------------------------|
D|-----5---------5-----------10--------10------10--------10-|
A|----------------------------------------------------------|
E|-5--------5---------10---------10-------10-------10-------|	


---------------------------------|	
--------55--------5---0-0-0--0-0-|	
---------------------------------|	
---5---------5--------0-0-0------|	

G|-------------------|	
D|-------------------|	
A|-----32----5-------|	
E|-------------------|	
Rate this tab: 1 Star2 Stars3 Stars4 Stars5 Stars
Lyrics for This Tab: Bike Lyrics by Pink Floyd

Talk about Bike Bass Tab

Comment on This Tab

Bike Related Tabs