Pink Floyd Guitar Tabs and More @ PinkFloydTabs.com

Careful with That Axe, Eugene Bass Tab

Drop D Tuning

Guitar Tuner from GTDB gtdb.org
Careful with that Axe, Eugene Tab - Pink Floyd

NOTE: This tab uses Drop D Tuning.

You can tune your guitar accordingly with the Drop D tuner above.

TUNING: DADG (Drop D)

Intro:

let notes ring...|
|------------------------------------|
|-0----0----0----0---0---------------|
|----------------------0-------------|
|---0----0----0----0-----------------| then....


let notes ring...|      repeat throughout verse
|------------------------------------|
|---0----0----0----0-----------------|
|--------------------0---------------|
|-0----0----0----0-------------------|

Verse 1:


let notes ring...|      repeat throughout verse
|------------------------------------|
|---0----0----0----0-----------------|
|--------------------0---------------|
|-0----0----0----0-------------------|

"Careful.....Careful.....With That Axe Eugene"

|---------------------------------------------------|
|---------------------------------------------------|
|---------------------------------------------------|
|-0--0--0--0--0--0--0--0--0--0--0--0--0--0--0--0--0-|

the built up for the chorus (AHHHHHHHHHHHHH!!!!!!!!!!! etc.)

Chorus:

"AAAAAAAHHHHHHHHHHHHHHHHHHH!!!!!!!!!!!!!!!"
"OOOOOOOHHHHHHHHHHHHHHHHHHH!!!!!!!!!!!!!!!"
"IIIIIIIHHHHHHHHHHHHHHHHHHH!!!!!!!!!!!!!!!"
"OOOOOOOHHHHHHHHHHHHHHHHHHH!!!!!!!!!!!!!!!"  etc.

let notes ring
|-------| |------------|
|-----0-| |----7---7---|
|-------| |-/7---7-----|
|-0-0---| |------------|


|---------------|
|-----0-----0---|
|-------------0-|
|-0-0---0-0-----|


for chorus
            repeat through chorus
|--------------------------------------------|
|-----0----------------------0---------------|
|-------0--5-3-0--5-3-0--------0-------------|
|-0-0--------------------0-0-----0-(0)-5-6-7-|

|-----------------------|-----------------------|-----------------|
|-----------------5-5---|-----------------3-3---|-----------------|
|-5-5--0--3--5-5--------|-5-5--0--3--5-5--------|--5-5--0--3-5-5--|
|-----------------------|-----------------------|-----------------|

|-----------------|
|-----------------|
|-----------------|
|-5(6)-3(4)--0~~~-|

Fill
     x5
|-----|---------------------|
|-3-0-|-(3)/5-5--7--5\3--0--|
|-----|---------------------|
|-----|---------------------|  then variation #6, #7 and/or #8

Verse 2/Outro:

as verse 1 and Intro;

Verse 1:


let notes ring...|      repeat throughout verse
|------------------------------------|
|---0----0----0----0-----------------|
|--------------------0---------------|
|-0----0----0----0-------------------|

"Careful.....Careful.....With That Axe Eugene"


let notes ring...|
|------------------------------------|
|-0----0----0----0---0---------------|
|----------------------0-------------|
|---0----0----0----0-----------------| then....


let notes ring...|      repeat throughout outro
|------------------------------------|
|---0----0----0----0-----------------|
|--------------------0---------------|
|-0----0----0----0-------------------|


last bar

|------------------------|
|---0---0---0------------|
|------------------------|
|-0---0---0---0~~~~~~~~~-|  ..........fade out
Rate this tab: 1 Star2 Stars3 Stars4 Stars5 Stars
Tab filed under: Ummagumma, Bass Tabs
Lyrics for This Tab: Careful with That Axe, Eugene Lyrics by Pink Floyd

Talk about Careful with That Axe, Eugene Bass Tab

1 Comment on This Tab

  1. For more on different guitar tunings and other Pink Floyd tabs on this site that use them, visit our Alternate Tunings page.

Comment on This Tab

Careful with That Axe, Eugene Related Tabs