Pink Floyd Guitar Tabs and More @ PinkFloydTabs.com

Comfortably Numb Bass Tab

Comfortably Numb Tab - Pink Floyd	

intro:	

Bm Bm 
|-----------|----------|	
|-----------|----------|	
|2---2-2----|2----2----|	
|-----------|----------|	
guitar slide	


verse 1:	

Bm A G Em B	
|-----------|----------|-----------|----------|	
|-----------|----------|-----------|----------| played 3x	
|2---2-2----|0----0----|-----------|2----2----|	
|-----------|----------|3---2-0----|----------|	
" ""hello..."""	


chorus 1:	

D A D A C G C G	
|-----------|----------|----------|----------|	
|-----------|----------|----------|----------| 
|5-------5\-|0---------|5------5\-|0-------2-|	
|-----------|----------|----------|----------|	
" ""there is no pain..."""	

|----------|----------|---------|----------|
|----------|----------|---------|----------|
|3---------|--------2-|3--------|----------|
|----------|3---------|---------|3---------|

play the chorus 2x then bridge 1:	

A C G D 
|-----------|----------|----------|	
|-----------|----------|----------|	
|0--0-0---2-|3---------|5----5----|	
|-----------|-----3----|----------|	
" ""i...have become comfortably numb"" "	


guitar solo 1:	

D A D A C G C G	
|----------|--------------|----------|-----------|	
|----------|--------------|----------|-----------|
|5----5--\-|0---0-0--2-3-4|5----5--\-|0---0-0--2-|	
|---------\|--------------|---------\|-----------|	

|----------|-----------|----------|---------|
|----------|-----------|----------|---------|
|3----3----|---------5-|3---3-3---|---------|
|----------|3---2-3----|----------|3--3-3---|

bridge 2: 

A C G D	
|-----------|------------|----------|	
|-----------|------------|----------|	
|0----0---2-|3--3-5------|5---------|	
|-----------|-------3----|----------|	
" ""i...have become comfortably numb"""	


verse 2: same as verse 1 but only played 2X	


chorus 2: same as chorus 1 tabed above	


bridge 3: 

A C G D D 
|-------------|-----------|------------|-----------| 
|---7--7------|-----------|------------|-----------|	
|0--------0-2-|3---3------|5--5--5--5--|5--5--5\---|	
|-------------|------3----|------------|--------\--|	
" ""i...have become comfortably numb"""	


guitar solo 2: same as the verse riff and it continues on throughout the solo	
so just keep funking' it up untill the end	
Rate this tab: 1 Star2 Stars3 Stars4 Stars5 Stars (1 votes, average: 1.00 out of 5)
Tab filed under: The Wall, Bass Tabs
Lyrics for This Tab: Comfortably Numb Lyrics by Pink Floyd

Talk about Comfortably Numb Bass Tab

2 Comments on This Tab

  1. greatest band o all times love playing along

  2. Tony Marriott

    Love Pink Floyd like playing along with tracks on bass thank you

Comment on This Tab

Comfortably Numb Related Tabs