Pink Floyd Guitar Tabs and More @ PinkFloydTabs.com

Corporal Clegg Bass Tab

Corporal Clegg Tab - Pink Floyd

  INTRO
G|----------------------------------|
D|----------------------------------|
A|---232------7-7-7-----------------|
E|-0-----3-0------------------------|

  VERSE
G|-------------------------------------------------------------|
D|------------------------------4-3----------------------------|
A|-------33333-55555----------2-----2-----2--------------------|
E|-55555-------------55555------------3-5---0-2-2-2------------|

  CHORUS
G|----------------------------------------------------|
D|----------------------------------------------------|
A|-5555555555-10-10-10-10-10-10-10-10-10-10--9-8------|
E|----------------------------------------------------|

  KAZOO SOLO
G|-----------------------------------------------------------|
D|-----------------------------------------------------------|
A|-5---5---5-10-5-10-5-10-5---5---5-10-5-10-5-10-5-----------|
E|---5---5------------------5---5----------------------------|



| /  slide up
| \  slide down
| h  hammer-on
| p  pull-off
| ~  vibrato
| +  harmonic
| x  Mute note
Rate this tab: 1 Star2 Stars3 Stars4 Stars5 Stars
Tab filed under: A Saucerful of Secrets, Bass Tabs
Lyrics for This Tab: Corporal Clegg Lyrics by Pink Floyd

Talk about Corporal Clegg Bass Tab

Comment on This Tab

Corporal Clegg Related Tabs