- Pink Floyd Tabbs - http://pinkfloydtabs.com -

Dogs Bass Tab

Dogs Tab - Pink Floyd

I think this is right. its very close. You may need to add a bit to it but its
basicaly right.

NOTE: This tab uses Standard Tone Down Tuning.

You can tune your guitar accordingly with the Standard Tone Down tuner above.

TUNING: DGCF (Standard Tone Down Tuning)      

|-----------------------------------------------------------------------------~|
|-----------------------------------------------------------------------------~|
|-7-7-x-7-7-x-7-7-x-7-7-x-3-3-x-3-3-x-3-3-x-3-3-x-2-2-x-2-2-x-2-2-x-2-2-x-1-1-~|
|-----------------------------------------------------------------------------~|


~---------------------|   Untill Change (3:40---|
~-----------------------------------------------|   Some Variations and differences.
~-x-1-1-x-1-1-x-1-1-----------------------------|
~-----------------------------------------------|

3:40

|-------------------------------------------------------| x2
|*-----------------------------------------------------*|
|*-7\5----5----5----5----5----5/7----7----7----7----7--*|
|-------------------------------------------------------|

|---------------------------------|------12------12---------10------10----|
|---------------------------------|*-------------------------------------*|
|-7-5-3—3—3---3---3-3---3---5—-7--|*-10------10---------8-------8--------*|
|---------------------------------|---------------------------------------|

|-----------------------------------------------------------|
|-----------------------------------------------------------|
|-7---7---7---7---7---7---3---3---3---3---2---2---2---2---2-|
|-----------------------------------------------------------|

5:30

|----------9----7--| x8   |-999--------------------------------4--4------|
|-------9----------|      |----------------------------------4---4-------|
|---7--------------|      |-------3---5-----3---5-----7---2----2---------|
|------------------|      |----------------------------------------------|

|____________________________Play Through TWICE ___________________________|

Verse

(And When You Loose Control...)


|----------9----7--|  x7   |-------------------------------------|
|-------9----------|       |-------------------------------------|
|---7--------------|       |-77777-7----5----3----2----0---7—-7--|
|------------------|       |-------------------------------------|


|_______________________Play Through TWICE ______________________|


Synth Section (Optional)

|---------------------------------------------------------------|
|---------------------------------------------------------------|
|-7---7---7---7---3---3---3---3---2---2---2---2---1---1---1---1-|
|---------------------------------------------------------------|

  Untill End Of Section

Verse

 (Gotta Admit…)

|-----------------------------------------------------------------------------~|
|-----------------------------------------------------------------------------~|
|-7-7-x-7-7-x-7-7-x-7-7-x-3-3-x-3-3-x-3-3-x-3-3-x-2-2-x-2-2-x-2-2-x-2-2-x-1-1-~|
|-----------------------------------------------------------------------------~|


~---------------------|
~---------------------|
~-x-1-1-x-1-1-x-1-1---|
~---------------------|


|-------------------------------------------------------| x2
|*-----------------------------------------------------*|
|*-7\5----5----5----5----5----5/7----7----7----7----7--*|
|-------------------------------------------------------|

|---------------------------------|------12------12---------10------10----|
|---------------------------------|*-------------------------------------*|
|-7-5-3—3—3---3---3-3---3---5—-7--|*-10------10---------8-------8--------*|
|---------------------------------|---------------------------------------|

|-----------------------------------------------------------|
|-----------------------------------------------------------|
|-7---7---7---7---7---7---3---3---3---3---2---2---2---2---2-|
|-----------------------------------------------------------|


Final Verse

|---------------------|   |-----------------------------------------------------|
|---------------------|   |-----------------------------------------------------|
|--10---5------7---5--|   |--10---5-----3---3----3—-3---3---2---2---10—-5--5----|
|---------------------|   |---------------------------------------------------0-|
1 Comment (Open | Close)

1 Comment To "Dogs Bass Tab"

#1 Comment By admin On January 16, 2012 @ 11:27 pm

For more on different guitar tunings and other Pink Floyd tabs on this site that use them, visit our Alternate Tunings page.