Pink Floyd Guitar Tabs and More @ PinkFloydTabs.com

Fat Old Sun Bass Tab

Fat Old Sun Tab - Pink Floyd	

"When that fat old sun.."
G |----------|--12--11--------------|-----------------------|-----------------|	
A |----------|----------10---9-/-4--|--5------5-----5----4--|-----------------|	
D |--10--10--|----------------------|------------5----------|--5-------5----7-|	
E |----------|----------------------|-----------------------|------(5)--------|	



G |-----------------|---------------------|--------------|-----------7h9p7----|	
A |-----------------|-----------5h7p5-----|--5--------5--|--5---7-9---------9-|	
D |--8-------8---8--|-------7----------7--|-------(5)----|--------------------|	
E |------(8)--------|--8------------------|--------------|--------------------|	



G |--7-------------|----------------------5h7-|--5--(5)--------|--------------|	
A |------0---------|-----------------5h7------|----------------|--5-----5--7--|	
D |--------------7-|--8----8---8--8-----------|---------3----3-|------5-------|	
E |----------------|---------8----------------|----------------|--------------|	


" ""Distant bells.."""	
G |-------7--7/9--12--12--11------|------------------------|------------------|	
A |--7h9----------------------12--|------------------------|----/12---0-------|	
D |-------------------------------|--10--------10----10\5--|---------------7--|	
E |-------------------------------|-------(10)-------------|------------------|	




G |------10-------------------|------------------------|----------------------|	
A |----------10---------------|-------------------5h7--|--5----5--5--5---7h9--|	
D |--8-----------8---8---8\3--|--3----3--3---5h7-------|----------------------|	
E |---------------------------|------------------------|----------------------|	




G |--7-------------------|-----------------------|----------------------------|	
A |------7---------------|-----------------------|----------------------5h7---|	
D |----------5---5---7---|--8--------8--8---8/3--|----------3--3---5h7--------|	
E |----------------------|-----------------------|----------------------------|	



" ""And if you sit.."""	
G |-----5/12--12--12--12---12--\-----|-----------------|---------5------------|	
A |--5----------------------------5--|---5----3--\-----|----5---(5)-----------|	
D |----------------------------------|--------------3--|---(3)---3------3-----|	
E |----------------------------------|-----------------|----------------------|	



G |-------|-------------------|------------------|----------5-----|-----------|	
A |-------|----------------5--|--5------5--\-----|-------5--------|-----------|	
D |-------|--0------2--3------|---------------3--|--3-------------|---2-------|	
E |---2---|-------------------|------------------|----------------|-----------|	



G |-----------------------|------------------|--------------------------------|	
A |-----------------------|------------------|--------------------------------|	
D |---0--/--5--------5----|--------/10-------|---5--------5---5---7---8---7---|	
E |-----------------------|------------------|--------------------------------|	


" ""When that fat.."""	
G |-----------------------5--5h7--5----|---------------------|----------------|	
A |------------------5h7-------------7-|---------------------|-5----5---5--4--|	
D |-8---8--8---8--8--------------------|-8---8--8--7--5---5--|----5-----------|	
E |------------------------------------|---------------------|----------------|	



G |-----------7------------|-----------5--5h7--5-----|--5---5-----------------|	
A |--------7-----7---------|------5h7-------------7--|------------------------|	
D |--5---------------5--7--|--8----------------------|-------------\3---3--5--|	
E |------------------------|-------------------------|------------------------|	



G |-------------------|-----------------7--9p7-------|------------------------|	
A |--5---5-----5---5--|--5-----7--7h9-----------9p7--|--------7---------------|	
D |---------5---------|------------------------------|--5---------5--5--5--7--|	
E |-------------------|------------------------------|------------------------|	


" ""And if you.."""	
G |-----------------|-------------------|----/12---11----|--9-----------------|	
A |-----------------|--------------5h7--|-5-----------12-|-----10--12--9\-----|	
D |--8-----8---7--5-|----------5h7------|----------------|----------------5\--|	
E |------8----------|-8-----8-----------|----------------|--------------------|	



G |------------------------|-------------------|------------------------------|	
A |------------------------|-------------------|----------------------2---4---|	
D |--3-------3--3----3-----|--2--------2--2----|--0-------2---3---5-----------|	
E |------------------------|-------------------|------------------------------|	



G |-------------------|--------------/5----/5---|----------4--4--4--4---------|	
A |--5-----5------5---|-------------------------|-----------------------------|	
D |-------------------|---\3----3---------------|--2----------------------2---|	
E |-------------------|-------------------------|-----------------------------|	



G |--------------------------|------------------------------|-----------------|	
A |-----------------------2--|-----------------2--3--2------|---5-------------|	
D |--0--------0--2--3--5-----|--5--------5--5-----------5---|-----------------|	
E |--------------------------|------------------------------|-----------------|	



G |------------|------------/10-10-10-10-10-10-10\-|---------/7-7-7-7-7-7-7-7-|	
A |------------|-----------------------------------|--------------------------|	
D |-5--5--5--7-|-8--8-8-8-8------------------------|-8-8-8--8-----------------|	
E |------------|-----------------------------------|--------------------------|	


To Guitar Solo.
Rate this tab: 1 Star2 Stars3 Stars4 Stars5 Stars
Tab filed under: Atom Heart Mother, Bass Tabs
Lyrics for This Tab: Fat Old Sun Lyrics by Pink Floyd

Talk about Fat Old Sun Bass Tab

Comment on This Tab

Fat Old Sun Related Tabs