Pink Floyd Guitar Tabs and More @ PinkFloydTabs.com

Flaming Bass Tab

Flaming Tab - Pink Floyd	

Intro & verse:	
G---------------------------------------------------------------------------|	
D---------------------------------------------------------------------------|	
A--7-7-7-7-7-7-7-7-7-7-7--------------12-------12----------12----5--8--7----|	
E-------------------------12/7--7-7-------12------12---12-------------------|	

G----------------------------------------------------------------------------|	
D-----------------14/--------------------------------------------------------|	
A--7-7-7-7-7-7-7-------7-7-7-7-7-7-7------------12------12---------12--5-8-7-|	
E--------------------------------------7--7-7-------12-----12--12------------|	

repeat riff Until break	
G-----13-16-13-----13/7-7----|	
D--14-----------14-----------|	
A----------------------------|	
E----------------------------|	

end with A--5-8-7------------------------------------------------| on last time thro	
G----------------------------------------------------------------|	
D----------------------------------------------------------------|	
A--7-7-7-7-7-7-7-7-7-7-7--------------12-------12----------12----|	
E-------------------------12/7--7-7-------12------12---12--------|	

Outro: play once	
G----------------------------------------------|	
D----------7-7-7-7---5-5-5-5-------------7-----|	
A--5---8-----------------------8-8-8-8---------|	
E----------------------------------------------|
Rate this tab: 1 Star2 Stars3 Stars4 Stars5 Stars
Lyrics for This Tab: Flaming Lyrics by Pink Floyd

Talk about Flaming Bass Tab

Comment on This Tab

Flaming Related Tabs