Pink Floyd Guitar Tabs and More @ PinkFloydTabs.com

Goodbye Blue Sky Bass Tab

Goodbye Blue Sky Tab - Pink Floyd

Intro	
Q=109 bpm	
4/4	
D D D D	
Q Q Q Q Q Q Q Q Q Q Q Q Q Q Q E S S	
|-----------------|-----------------|-----------------|-------------------|	
|-----------------|-----------------|-----------------|-------------------|	
|-5---5---5---5---|-5---5---5---5---|-5---5---5---5---|-5---5---5-----3-2-|	
|-----------------|-----------------|-----------------|-------------------|	


Am Am D D	
Q Q Q Q Q Q Q Q 3x W +H. +E S S	
||------------------|------------------||-----------------|---------------------|	
||o-----------------|-----------------o||-----------------|---------------------|	
||o-0---0---0---0---|-0---0---0---0---o||-5---------------|-(5)---------(5)-2p0-|	
||------------------|------------------||-----------------|---------------------|	




Interlude	
D D Bm Bm	
H. +E e H. +E E +W +W 3x	
||--------------------|-------------------|-------------------|--------------------||	
||o-------------------|-------------------|-------------------|-------------------o||	
||o-5---------(5)-5---|-5---------(5)-2---|-(2)---------------|-(2)---------------o||	
||--------------------|-------------------|-------------------|--------------------||	
"...ooh, ooh, ooh, ooh, ooh..."	




1st Verse	
Am Am Am Am	
Q Q Q Q Q Q Q Q Q Q Q Q Q Q Q Q	
|-----------------|-----------------|-----------------|-----------------|	
|-----------------|-----------------|-----------------|-----------------|	
|-0---0---0---0---|-0---0---0---0---|-0---0---0---0---|-0---0---0---0---|	
|-----------------|-----------------|-----------------|-----------------|	
"...did, did, did, did you see the frihtened ones?..."	


Am Am Am Am	
Q Q Q Q Q Q E E E E E E E E E E E E E E E E E E E E	
|-----------------|-----------------|-----------------|-----------------|	
|-----------------|-----------7---7-|---5---5---4---4-|---2---2---0-----|	
|-0---0---0---0---|-0---0---0---0---|-0---0---0---0---|-0---0---0---0-4-|	
|-----------------|-----------------|-----------------|-----------------|	


Bm Bm D D	
H H H H Q Q Q Q Q Q Q Q	
|-----------------|-----------------|-----------------|-----------------|	
|-----------------|-----------------|-----------------|-----------------|	
|-2-------2-------|-2-------2-------|-5---5---5---5---|-5---5---5---5---|	
|-----------------|-----------------|-----------------|-----------------|	




Interlude	
similar to previous	




2nd Verse	
Am Am D D	
Q Q Q Q Q Q Q Q 3x W W	
||------------------|------------------||-----------------|-----------------|	
||o-----------------|-----------------o||-----------------|-----------------|	
||o-0---0---0---0---|-0---0---0---0---o||-5---------------|-5---------------|	
||------------------|------------------||-----------------|-----------------|	
"...did, did, did, did you see the frihtened ones?..."	




Chorus	
D D D D	
Q Q Q Q Q Q Q Q 3x Q Q Q Q Q Q S S E Q	
||--7---7---7---7---|-7---7---7---7----||-7---7---7---7---|-7---7---5p4p2-----------|	
||o-----------------|-----------------o||-----------------|-----------------2b3.5---|	
||o-----------------|-----------------o||-----------------|-------------------------|	
||------------------|------------------||-----------------|-------------------------|	
...goodbye blue sky...	




Outro	
D D	
W +W	
|-----------------||--------------------||	
|-0---------------||o-(0)--------------o|| reapet 'till	
|-----------------||o------------------o|| fade out	
|-----------------||--------------------||	



"Look, Mummy! There's an airplane up in the sky."	

" Did, did, did, did you see the frightened ones?"	
" Did, did, did, did you hear the falling bombs?"	
" Did, did, did, did you ever wonder"	
Why we had to run for shelter	
When the promise of a brave new world	
Unfurled beneath a clear blue sky	

" Did, did, did, did you see the frightened ones?"	
" Did, did, did, did you hear the falling bombs?"	
The flames are all long gone	
But the pain lingers on	

Goodbye blue sky	
Goodbye blue sky	
Goodbye, goodbye	
Rate this tab: 1 Star2 Stars3 Stars4 Stars5 Stars (1 votes, average: 5.00 out of 5)
Tab filed under: The Wall, Bass Tabs
Lyrics for This Tab: Goodbye Blue Sky Lyrics by Pink Floyd

Talk about Goodbye Blue Sky Bass Tab

Comment on This Tab

Goodbye Blue Sky Related Tabs