Pink Floyd Guitar Tabs and More @ PinkFloydTabs.com

Have A Cigar Bass Tab

Have A Cigar Tab - Pink Floyd	

Use a flanger here. 
--------------------------------------------------------------------------------	
--------------------------5-----14\--------5------------------------------------	
----7-------7-----5--5h7--------------5h7--------7-----5-----5h7-----(0)--7-----	
-12\------3/-----------------12\------------------------------------------------	


9-----9--------------------------------------------------9-----(9)--7-----------	
-------------------------------------5--5------------------------------9--8-----	
---------7-------7----------5-----7--------7-------5----------------------------	
---------------3/------5h7-----------------------3/-----------------------------	


--------------------------------------------------------------------------------	
7--5------------------------------------5---------------------------------------	
---------7-------7-----7--5h7--7-----7-----5h7-----7----------------------------	
---------------3/-----------------0-------------------------0-----2-----3-------	


--------------------------------------------------------------------------------	
--------------------------------------------------------------------------------	
3----------3-----1-----1h3-----3--3--------1h3-----3-----3----------------------	
------1h3----------------------------3-------------------------3-----2-----0----	


------------9--9\---7-----------------------------------------------------------	
-----------------7-----5--------------------------------------------------------	
---5--7----------------------7-------7-----------------------3----------3-------	
-----------------------------------3/------0-----2-----3-----------1h3----------	


-------------------------------------------------------------------------5------	
----------------------------------------------------------------------7---------	
1-----1h3-----3--3--------------1h3-----1--3-----0--3-----5-----0--5------------	
--------------------3-----3-----------------------------------------------------	


---------------------------------------------------------7--(7)h9---------------	
5-----4------------------------------------------------5/-----------------------	
------------7-----(7)--5-----4-----3--4--5--6-----7--7\------------x--7\0--0----	
--------------------------------------------------------------------------------	


1st verse (come in here..) 
--------------------------------------------------------------------------------	
-------------------------------5--------------------------------------5---------	
7--7-----7-------7-----5--5h7-----7-----5------7-------7-----5--7--------7------	
---------------3/------------------------------------3/-------------------------	


---------------------7h9--9-----------------------------------------------------	
5------------------------------------5-----------5--5-----------5--9------------	
---7--5--7-----0--7-------------5h7--------7--------------7-----------7--5------	
--------------------------------------------------------------------------------	


-------------------------------------------------------------9\7h9--7h9---------	
-------------------------------5-----5--5--------------5--9---------------------	
3-----(3)h5-----7-----7-----------7--------5-----7------------------------------	
-------------------------0------------------------------------------------------	


9-------------------------------------------------------------------------------	
----------------------------------------------5-----5--5------------------------	
------5--7-----------7--------5h7-----5--5h7-----7--------7--------3------------	
--------------------------------------------------------------------------------	

and did we..	
--------------------------------------------------------------------------------	
-----------------------5--------------------------------------------------------	
5--------7-----5--5h7--------7-----5--7--------5--5h7-----7------7\------3------	
--------------------------------------------------------------------------------	


--------------------------------------------------------------------------------	
--------------------------------------------------------------------------------	
------5--------7--------3-----3--------5--5--5--5--5--5-------------------------	
------------------------------------------------------------3-----3-----3--3----	


--------------------------------------------------------------------------------	
----------------------------------------------------5--4-----4--3---------------	
---0h2-----3--------3-----3--3-----3h5----------------------------------7-------	
----------------------------------------3------------------------/14\-----------	

1/4bend> fullbend> 
--------------------------------------------------------------------------------	
-------------------5---------7--------------------------------------------------	
------5-----7----------------------7--------0--7--------5--------5h7-----0------	
--------------------------------------------------------------------------------	

We're just...(2nd verse) 
--------------------------------------------------------------------------------	
---5-----5-------------------------------------5--------------------------------	
7------------7-----------5-----5h7/19\---7--------7--5-----7--------7p5---------	
--------------------------------------------------------------------------------	


--------------------------------------------------------------------------------	
--------5--------5--------------------------------------------------------14----	
---5h7--------7-----7--5-----7-----------3-----------5-----------7--------------	
--------------------------------------------------------------------------------	


--------------------------------------------------------------------------------	
\------14--14\---14\---5--------------------------------------------5-----5-----	
-----------------------------5--7\-----7-----5--5h7--------7--7--7--------------	
-------------------------------------3/-----------------------------------------	


--------------------------------------------------------------------------------	
---------------------------------------------------------5----------------------	
---7------------------7-----7--5-----7--------5-----5h7--------7-----7--7--5----	
-------------/1/12\-------------------------------------------------------------	


-------------------------------------/12----------------------------------------	
------------------------------------------14-------------5--------------5-------	
7--------7--5--3-----------5--------7---------------5h7--------7--7--------7----	
--------------------------------------------------------------------------------	

And did we tell... 
--------------------------------------------------------------------------------	
-------/14---/14-------------5-----------------5--4-----4--3--------------------	
5-----7-----------5-----5h7------7-----7\---------------------------------------	
--------------------------------------------------------------14\---0-----------	

1/4bend> 
-----------------------------------------------9-----9--------------------------	
0-----4h5---------------------------------------------------------------5-------	
-----------7-----5h7-----7-----5-----5h7-------------------7---5--7--------7----	
------------------------------------------x\------------------------------------	

fullbend> 
--------------------------------------------------------------------------------	
------------5-----5--------5----------------------------------------5-----5-----	
------5h-7--------------5-----7--7-----5--7-----7----------5-----7-----7--------	
------------------------------------------------------5h7-----------------------	


-----------------9\---------12--------------------------------------------------	
---------5---/9--------/14------14-----12---------------------------------------	
---7--7---------------------------/14------14--12--------5--7--------x----------	
---------------------------------------------------12\---------------------5----	


-------------------------------------------------9--9--------9--9--9------------	
----------------------------5---------------------------------------------------	
----5-----7--7-----7--7--5-----7--------7-----7--------7--7-----------7---------	
h7------------------------------------------------------------------------------	


--------------------------------------------------------------------------------	
--------------------------------------------------------------------------------	
-----7--------5--------7-----------------3----------3-----x-----1h3-----3-------	
---3/------------------------2-----3-----------1h3-------------------------1----	


--------------------------------------------------------------------------9-----	
---------10\----------------------------------/12---/14-----------------5/------	
----1h3-----3--------3-----------------------------------10-----5h7-------------	
h3-------------------------3-----2-----0----------------------------------------	


--------------------------------------------------------------------------------	
--------------------------------------------------------------------------------	
------------------------------3----------3-----1-----1h3--------x-----1---------	
------0-----2-----3-----------------1h3-----------------------------------------	


--------------------------------------------------------------------------------	
-----------------------------------7--------7-----------5-----4-----------------	
1h3-----0-----3-----x--x-----5--5-----5--5--------------------------7-----------	
--------------------------------------------------------------------------------	


--------------------------------------------------------------------------------	
-------------------------------------------------14\-/14------------------------	
(7)--5--5-----4-----3--4--5--6-----7/------------------------5h7-----7----------	
-------------------------------------------12\-----------------------------7----	


--------------------------------------------------------------------------------	
-----------------------------------------------5-----5--------------------------	
------------------5--7-----x----------5-----7--------------7\-----7--------5----	
---------0-----------------------5h7----------------------------3/--------------	


--------------------------------------------------------------------------------	
-----------5-----5-----------------------------4-----5--------------------------	
---5h7---------------/7---/7---/7--------7-----------------3----------3---------	
-----------------------------------------------------------------1h3------------	


--------------------------------------------------------------------------------	
--------------------------------------------------------------------------------	
1-----1h3--------3--1--------3--------3-----3-----------------------------5-----	
--------------------------------------------------3--2--0-----------------------	


----------------------------------------7---------------------------------------	
--------5---/12/12\---5--------------5------------------------------------------	
---5h7-------------------------7-----------------------------------3------------	
-------------------------------------------------0-----2-----3-----------1------	


--------------------------------------------------------------------------------	
------------------------------------------------------7--------7-----5-----4----	
----3-----1-----1h3-----0--3-----1-----3--------5--5-----5--5-------------------	
h3------------------------------------------------------------------------------	


-------------------------------------------------------------------9--9--9------	
--------------------------------------------------------------------------------	
---7-----(7)--5--5-----4-----3--4--5--6--------7--7-------7---------------------	
--------------------------------------------------------3/----------------------	

Fade out....	
7-----------------------------------------------------------------------------	
------5--------------------5--------------------------------------------------	
---------7--5--7-----5--7-----7--5--7-----7--7--7--7--7--5--7-----------------
------------------------------------------------------------------------------
Rate this tab: 1 Star2 Stars3 Stars4 Stars5 Stars (2 votes, average: 5.00 out of 5)
Tab filed under: Wish You Were Here, Bass Tabs
Lyrics for This Tab: Have A Cigar Lyrics by Pink Floyd

Talk about Have A Cigar Bass Tab

Comment on This Tab

Have A Cigar Related Tabs