Pink Floyd Guitar Tabs and More @ PinkFloydTabs.com

Interstellar Overdrive Bass Tab

Interstellar Overdrive Tab - Pink Floyd	

Opening Riff:	
4 times	
the slide on the ending of riff can be	
" done by wish of the player, you can hear"	
it only when this riff repeats at end of the song	

G----------|-------------------------------------------------]	
D-/2222222-|--9-9-989-7-7--767--5-5-5-5-5-5-454-22222222/14\-]	
A----------|---------9--------7----------------5-------------]	
E----------|-------------------------------------------------]	

21 times	
G-----------]	
D---9-8-7-6-]	
A--7--------]	
E-----------]	

" few times , then B tone (16 fret) starts to fade"	

G----16--16--16--16]	
D--14--14--14--14--]	
A------------------]	
E------------------]	

G------------------]	
D--14--14--14--14--]	
A------------------]	
E------------------] 

pause (do some weird sounds or nothing)	

this part goes something like this listen to song	
if you want to do it correct but it is all about improvisation	

G---------------------16-------16----16-14-----16-14----]	
D--14--14--14--14--14----14-14----14-------14--------14-]	
A----------------14-------------------------------------]	
E-------------------------------------------------------] 

here is some of the stuff Waters plays but you	
can (must) do some improvisaton based on these tones	
after these lines goes a little solo in same scale 
" don't worry about timing , you can't miss"	

G----------------|-----12h14--|-------16-14-12--|-------------------]	
D----12-14-14-14-|--14--------|-14-14-----------|-14-14-------------]	
A-14-------------|------------|-----------------|-------14-12-10----]	
E----------------|------------|-----------------|----------------12-]	

first time you go back to this riff do it a little bit	
more quite with a powerfull end (on E) using here writen variations 

G----------|----------------------7---7---7----------------]	
D-22222222-|--9-9-989-7-7--767--5---5---5---454-22222222---]	
A----------|---------9--------7----------------5-----------]	
E----------|-----------------------------------------------]	
Rate this tab: 1 Star2 Stars3 Stars4 Stars5 Stars
Lyrics for This Tab: Interstellar Overdrive Lyrics by Pink Floyd

Talk about Interstellar Overdrive Bass Tab

Comment on This Tab

Interstellar Overdrive Related Tabs