Pink Floyd Guitar Tabs and More @ PinkFloydTabs.com

Keep Talking Bass Tab

Keep Talking Tab - Pink Floyd

(bass starts playing at 1:07
G|----------|
D|----------|
A|----------|x5
E|-3--5-3-5-|

Verse:
G|---------------------------------------------------------------------------|
D|---------------------------------------------------------------------------|
A|-12\0----------------------------------------------------------------------|
E|-------3--5-3-5---3-5---3--5-3-5---5-5---3--5-5--3-5---5-5---3--5--3-5--5-5|

Chorus:
G|---------------------------------------------------------------------------|
D|---------------------------------------------------------------------------|
A|----------------------------------------3----------------------------------|
E|-5--3--5-5---3-5--3--5-5---3-5--3--5-5----3---5--3--5-5---3--5--3--5-5-----|

G|---------------------------------------------------------------------------|
D|---------------------------------------------------------------------------|
A|-10\------------------------3-3----------------------------5-5-7\----------|
E|-----5--3--5-5---5--3--5-5------3---5--3--5-5---5--3--5-5---------5--3--5-5|

Bridge:
G|---------------------------------|
D|-3--3-3--3--------3-2--2-2--2----|
A|---------------------------------|
E|-----------1--1---------------0--|

Solo (then chorus):
G|-----------------------------|
D|-----------------------------|
A|-----12\-----3---------------|x23
E|-5-------5-5----5--3-5----3--|

G|-----------------------------|
D|----------------------------2|
A|-----12\-----3----------2-5--|
E|-5-------5-5----5--3-5-------|

G|-----------------------------|
D|-----------------------------|
A|-----12\-----3---------------|x2
E|-5-------5-5----5--3-5--5-3--|

Bridge (outro):
G|---------------------------------------------------------------------------|
D|----3---------3h5p2--2-2----------3----------2------2---2--2---2-----------|
A|-------3-----------------2-----------3----------2h5----------5-------------|
E|-1-------1-1---------------0---1-------1--0--------------------------------|

G|---------------------------------------------------------------------------|
D|-3--3-------3--2-----------------------------------------------------------|
A|-------3----------2-----12-------------------------------------------------|
E|---------1----------0------------------------------------------------------|


| /  slide up
| \  slide down
| h  hammer-on
| p  pull-off
| ~  vibrato
| +  harmonic
| x  Mute note
Rate this tab: 1 Star2 Stars3 Stars4 Stars5 Stars
Tab filed under: The Division Bell, Bass Tabs
Lyrics for This Tab: Keep Talking Lyrics by Pink Floyd

Talk about Keep Talking Bass Tab

Comment on This Tab

Keep Talking Related Tabs