Pink Floyd Guitar Tabs and More @ PinkFloydTabs.com

Lucifer Sam Bass Tab

Lucifer Sam Tab - Pink Floyd	

Intro/main:	

G|-------------------------------------------------------------|	
D|-------------------------------------------------------------|	
A|---------4-3-2-0-------4-3-2-0-------4-3-2-0-------4-3-2-0---|	
E|--0-1-2-----------1/2-----------1-2-----------1/2------------|	

G|---------------------------------------------------------------|	
D|---------2-1-0---------2-1-0-----------------------------------|	
A|--0-1-2--------4--1/2--------4---------4-3-2-0-------4-3-2-0---|	
E|--------------------------------0-1-2-----------1/2------------|	

Pre chorus:	

G|-------------------------------------------------------------------|	
D|--------------------------------9-9-7---7-9-9-7--9-9-7---7-9-9-7---|	
A|--9-9-9-9-9-9-9-9--10-10-10-10--------9----------------9-----------|	
E|-------------------------------------------------------------------|	

G|---------------------/9-7---/9-7-------|	
D|-----6-6-7-7-9-9----------9------9-----|	
A|--7---------------7--------------------|	
E|---------------------------------------|	

Chorus:	

G|------------------|	
D|------------------|	
A|--3-3-3-3--5------|	
E|------------------|	

Then play main, pre chorus and chorus again then during solo:

G|------------------------------------------------------------------------|	
D|------------------------------------------------------------------------|	
A|------------------------------------------------------------------------|	
E|--2--2-2-2-2-2-2-2---5-5-5-5-5---2-2-2-2--0-0-0-0-0-0-0-0---2-2-2-2-2-2-|	

Play the pre chorus and the chorus, then the whole structure	
till the end of the song....I think it's pretty correct and
easy to understand... Have fun!
Rate this tab: 1 Star2 Stars3 Stars4 Stars5 Stars
Lyrics for This Tab: Lucifer Sam Lyrics by Pink Floyd

Talk about Lucifer Sam Bass Tab

Comment on This Tab

Lucifer Sam Related Tabs