- Pink Floyd Tabbs - http://pinkfloydtabs.com -

Not Now John Bass Tab

Not Now John Tab - Pink Floyd

NOTE: This tab uses Drop D Tuning.

You can tune your guitar accordingly with the Drop D tuner above.

TUNING: DADG (Drop D)

/ slide up	
\ slide down	
h hammer on	
p pull off	
v vibrato	
x mute	


first verse	
G|------------------------------------|	
D|------------------------------------|	
A|------------------------------------|	
D|-21\7--5----0----0-2--0-2----2--0-2-|	

G|-----------------------------------|	
D|-----------------------------------|	
A|-----------------------------------|	
D|-5----5-0-----0-2--0-2----0-2--0-2-|X2	

G|------------------------------|	
D|------------------------------|	
A|------------------------------|	
D|-5----0-0----------------21\7-|	


prechorus	
G|-------------------------|	
D|-------------------------|	
A|-------------------------|	
D|-2--2--2--2--2--2--2--2--|x2	

G|-------------------------|	
D|-------------------------|	
A|-------------------------|	
D|-5----0----2-------------|	


chorus	
G|-------------------------------------|	
D|-------------------------------------|	
A|-------------------------------------|	
D|-2----------------2-2----------------|x4	


second verse	
G|------------------------------------|	
D|------------------------------------|	
A|------------------------------------|	
D|-21\7--5----0------2--0-2----2--0-2-|	

G|------------------------------------------|	
D|-------------------------0-2----0-2--/7---|	
A|------------------------------------------|	
D|-21\7--5----5-0-----0-2-----------------0-|	

G|--------------------------------|	
D|--------------------------------|	
A|--------------------------------|	
D|-5----5-0-----0-2-2-2-2-0-2-2-2-|	

G|---------------------------------------------|	
D|---------------------------------------------|	
A|---------------------------------------------|	
D|-21\7--5----5-0--2/7---------7-7-7-7-7-7-7-7-|	


Guitar solo	
G|--------------------------------------------------------------|	
D|--------------------------------------------------------------|	
A|--------------------------------------------------------------|	
D|-2----2----15\-2----2-2----5h7-2----2----5h7-2----7--5--4--2--|	

G|-------------------------------------------------|	
D|-------------------------------------------------|	
A|---------------------5-7-x-----------------------|	
D|-2-2----5h7-2----5h7---------2----2-2----2---2-5-|	

G|------------------------------------------------------------|	
D|------------------------------------------------------------|	
A|----------------------7----7--------------------------------|	
D|-7----7-7----5h7-7------9\---9\----7-7----7-7----7v----21\7-|	

G|----------------------------------------------------------------|	
D|----------------------------------------------------------------|	
A|----------------------------------------------------------------|	
D|-5----5-5----5-0----0-0----15\--0-2-0-2-0-2-0-2-0-2-0-2--/7--0--|	


third verse	
G|-----------------------------------|	
D|-----------------------------------|	
A|-----------------------------------|	
D|-5----0-----2------------5-2-2-2-2-|	

G|------------------------------|	
D|------------------------------|	
A|------------------------------|	
D|-5----0----0-2------0-2-2-2-5-|	

G|-----------------------------------|	
D|-----------------------------------|	
A|-----------------------------------|	
D|-5----0-----2------0-2--2--2-2-2-2-|	

G|-------------------------------------------------------|	
D|-------------------------------------------------------|	
A|-----------------/7-5-7----7-5-7-5-7-5-7-5-7-5-7-5-7-5-|	
D|-5----0-----2------------------------------------------|	

repeat chorus	

fourth verse	
G|-------------------------------|	
D|-------------------------------|	
A|-------------------------------|	
D|-5----5-0-----0-2--0-2----21\7-|	

G|---------------------------------------------|	
D|---------------------------------------------|	
A|---------------------------------------------|	
D|-5----5-0-----0-2--0-2----2--0-2----0-2--0-2-|	

G|-----------------------------------|	
D|-----------------------------------|	
A|-----------------------------------|	
D|-15\-5----5-0----0-2/14--------14\-|	

G|-------------------------------|	
D|--------------------------15\--|	
A|-------------------------------|	
D|-5----5-0-----0-2--0-2---------|	


outro	
G|------------------------------|	
D|------------------------------|	
A|------------------------------|	
D|-5----5-0-----0-2--0-2-0-2-0--|x7	

G|------------------------------|	
D|------------------------------|	
A|------------------------------|	
D|-5----5-0-----2---------21\1--|	

G|------------------------------|	
D|------------------------------|	
A|------------------------------|	
D|-5----5-0-----2----0-2--21\1--|	

G|---------------------------|	
D|---------------------------|	
A|---------------------------|	
D|-5----5-0-----2----0-2--4--|	

G|-------------------------------|	
D|-------------------------------|	
A|-------------------------------|	
D|-5----5-0-----2----0-2-0-2-15\-|	

G|-------------------------------|	
D|-------------------------------|	
A|-------------------------------|	
D|-5----5-0----15\-2----0-2-0-2--|	

fades out	
1 Comment (Open | Close)

1 Comment To "Not Now John Bass Tab"

#1 Comment By admin On January 18, 2012 @ 1:03 am

For more on different guitar tunings and other Pink Floyd tabs on this site that use them, visit our Alternate Tunings page.