Pink Floyd Guitar Tabs and More @ PinkFloydTabs.com

Paint Box Bass Tab

Paint Box Tab - Pink Floyd

Intro:
G---------7h9-7h9-9----------7h9-7h9-9---|
D-------9------------------9-------------|
A--7-7----------------7-7----------------|
E----------------------------------------|

Riff: last night i had...
G----------------------------------------------|
D---------------------------0-2-3--5--7-7-7-7--|
A--7-7---7-7---5-5--5--3-3---------------------|
E----------------------------------------------|

I had another drink....
G--------------------|
D--3-3-3-3-----------|
A-----------3-3-3----|
E--------------------|

G----------7h9-9----------7h9-7h9-9---|
D-------9---------------9-------------|
A--7-7-------------7-7----------------|
E-------------------------------------|

What a way to spend that evening...
G----------------------------------------------|
D---------------------------0-2-3--5--7-7-7-7--|
A--7-7---7-7---5-5--5--3-3---------------------|
E----------------------------------------------|

Far away...     getting up...
G------------------------------------------------|
D--3-3-3-3-----------5-4-3-2-1-0-----------------|
A-----------3-3-3-3--------------4-3-3-3-3-3-3---|
E------------------------------------------------|

I open the door...
G---------------------------------------------------------|
D--5-5-5-5-5-5-5-5------------------/12-10-9--------------|
A------------------5-5-5-5-5-5-5-5-----------12-10-8-7-5--|
R---------------------------------------------------------|


G-----------------------------|Improv encouraged
D--12-10-9--------------------|
A----------12-10-8-7-5--------|
E-----------------------------|
Rate this tab: 1 Star2 Stars3 Stars4 Stars5 Stars
Tab filed under: Relics, Bass Tabs
Lyrics for This Tab: Paint Box Lyrics by Pink Floyd

Talk about Paint Box Bass Tab

Comment on This Tab

Paint Box Related Tabs