Pink Floyd Guitar Tabs and More @ PinkFloydTabs.com

Pow R. Toc H. Bass Tab

Pow R. Toc H. Tab - Pink Floyd

Listen For Accurate Timing

@ 0:09
G|----12----12----12----12-----|
D|-----------------------------|
A|-----------------------------|
D|-----------------------------| 
 
@0:18
G|---12--10----10--12--|
D|----------10---------|
A|---------------------|
D|---------------------|
Repeat till 1:44 

Here comes in the crazy screaming noises

  no Bass till 3:05, Then...
G|----12---10--9---7---5---0~~~--|
D|-------------------------------|
A|-------------------------------|
D|-------------------------------| 
Till End
Rate this tab: 1 Star2 Stars3 Stars4 Stars5 Stars
Lyrics for This Tab: Pow R. Toc H. Lyrics by Pink Floyd

Talk about Pow R. Toc H. Bass Tab

Comment on This Tab

Pow R. Toc H. Related Tabs