Pink Floyd Guitar Tabs and More @ PinkFloydTabs.com

Run Like Hell Bass Tab

Drop D Tuning

Guitar Tuner from GTDB gtdb.org

Run Like Hell Tab - Pink Floyd

NOTE: This tab uses Drop D Tuning. 

You can tune your guitar accordingly with the Drop D tuner above.

TUNING: DADG (Drop D)

Intro/Chorus

Part I
G|-------------------------------------------------------|
D|*------------------------------------------------------|
A|*------------------------------------------------------|
D|---0--0--0--0--0--0--0--0------------------------------|


Part II
G|-------------------------------------------------------|
D|*------------------------------------------------------|
A|*------------------------------------------------------|
D|---3--3--3--3--3--3--3--3--7--7--7--7--7--7--7--7------|
    "Run, Run, Run,....."


Verse
G:----------------------------------------------------------------|
D:----------------------------------------------------------------|
A:------------------------------------------------3-3-3-3-3-3-3-3-|
E:0-0-0-0-0-0-0-0-1-1-1-1-1-1-1-1-0-0-0-0-0-0-0-0-----------------|
  You Better..    With your..     With your..     See the....

G:---------------------------------------------------------------|
D:---------------------------------------------------------------|
A:2-2-2-2-2-2-2-2-----------------5-5-5-5-5-5-5-5----------------|
E:----------------0-0-0-0-0-0-0-0--------------------------------|
  With Your..     And The Hammers You Better Run

G:---------------------------------------------------------------------------|
D:---------------------------------------------------------------------------|
A:-5-5-5-5-5-5-5-5-5-5-5-5-5-5-5-5-5-5-5-5-5-5-5-5-5-5-5-5-5-5-5-5-5-5-5-5-5-|
E:---------------------------------------------------------------------------|


Structure:

Part I x 10
Part II
Part I x 2
Verse
Part I x 6
Part II
Part I x 2
Verse
Part I x 2
Verse
Part I x 14
Rate this tab: 1 Star2 Stars3 Stars4 Stars5 Stars
Tab filed under: The Wall, Bass Tabs
Lyrics for This Tab: Run Like Hell Lyrics by Pink Floyd

Talk about Run Like Hell Bass Tab

1 Comment on This Tab

  1. For more on different guitar tunings and other Pink Floyd tabs on this site that use them, visit our Alternate Tunings page.

Comment on This Tab

Run Like Hell Related Tabs