Pink Floyd Guitar Tabs and More @ PinkFloydTabs.com

See Emily Play Bass Tab

See Emily Play Tab - Pink Floyd

Intro:

G-------------------------------------------------------------------|
D----7---7---7---7--------------------------------------------------|
A--0---0---0---0-----5/3--------5/3--------5/3--------5/3-----------|
E------------------------5-5-5------5-5-5------5-5-5------5-5-5-----|

Verse: Emily tries but misunderstand.....

G---------------------------------------------12-9---------9-7--------|
D----------------------5/7-5-----------------------9-----------9------|
A--------------------5-------7-7-0-7----7--0---------10--0-------10---|
E--5/3--3-3-3-3-3-3-------------------0-------------------------------|

G---------------            G---------------------|
D--------------- transition:D---------------------|
A---------------            A-----3--5------------|
E--3-3-3-3-3----            E--3------------------|

Chorus:

G-----16-13----16-13---------14-11----14-11---------16-13----16-13-------|
D--14-------14-------14---12-------12-------12---14-------14-------14----|
A------------------------------------------------------------------------|
E------------------------------------------------------------------------|

G-----14-11----14-11---------16-13----16-13------------------------------------|
D--12-------12-------12---14-------14-------14-------------------------7-7-----|
A------------------------------------------------5-5-5-5-5-5-5-5-----7---------|
E------------------------------------------------------------------5-------5-5-|

G---------------------|
D---------------------|
A---------------------|
E--3-3-3-3-3-3-3-3-3--|

Then play riff and chorus...
During the solo plat an A:

G------------------------------------|
D----7---7---7---7---7---7-----------|
A--0---0---0---0---0---0---0---------|
E------------------------------------|

Then play the intro--the verse--the chorus--then end on a D:

G----7---7---7---|
D----------------| Fades out..........
A--5---5---5-----|
E----------------|
Rate this tab: 1 Star2 Stars3 Stars4 Stars5 Stars
Tab filed under: Relics, Bass Tabs
Lyrics for This Tab: See Emily Play Lyrics by Pink Floyd

Talk about See Emily Play Bass Tab

Comment on This Tab

See Emily Play Related Tabs