Pink Floyd Guitar Tabs and More @ PinkFloydTabs.com

Take Up Thy Stethoscope and Walk Bass Tab

Take Up Thy Stethoscope And Walk Tab - Pink Floyd	
	
|-----------|	
|-----------|x8	
|--7---5-7--|	
|-----------|	

|------------------------------|	
|------------------------------|	
|--7---5-----------------------|	
|----------7-7-7-7-7-7-7-7-7-7-|	

|-----------|	
|-----------|	
|--7---5-7--|	
|-----------|	

|------------------------------|	
|------------------------------|	
|--7---5-----------------------|	
|----------7-7-7-7-7-7-7-7-7-7-|	

|-----------|	
|-----------|	
|--7---5-7--|	
|-----------|	

|------------------------------|	
|------------------------------|	
|--7---5-----------------------|	
|----------7-7-7-7-7-7-7-7-7-7-|	

|----------|	
|----------|x6	
|--7--7\-|	
|----------|	

|--------|--------------|------------|	
|--7/17--|--------------|------------|	
|--------|--7-7-77-5-7--|--7-7-77-5--|	
|--------|--------------|------------|	

|--------------|	
|--------------|x18	
|--7-7-77-5-7--|	
|--------------|	

|----16--16---16\|	
|--14--14--14------|	
|------------------|	
|------------------|	

|--------------|	
|--------------|x2	
|--7-7-77-5-7--|	
|--------------|	

|-------------|	
|---9-9--9/17-|	
|--7-7-7------|	
|-------------|	

|--------------|	
|--------------|x10	
|--7-7-77-5-7--|	
|--------------|	

|-----------------|	
|---------9-8-7-6-|x18	
|--5-7--7---------|	
|-----------------|	

|----------------------|	
|---------9-8-7-6-7-6--|	
|--5-7--7--------------|	
|----------------------|	

|---------|	
|----5-7--|x8	
|--7------|	
|---------|	

|--------|--------------|------------|	
|--7/17--|--------------|------------|	
|--------|--7-7-77-5-7--|--7-7-77-5--|	
|--------|--------------|------------|	

|--------------|	
|--------------|x18	
|--7-7-77-5-7--|	
|--------------|	

|----16--16---16\|	
|--14--14--14------|	
|------------------|	
|------------------|	

|--------------|	
|--------------|x2	
|--7-7-77-5-7--|	
|--------------|	

|-------------|	
|---9-9--9/17-|	
|--7-7-7------|	
|-------------|	

|--------------|	
|--------------|x2	
|--7-7-77-5-7--|	
|--------------|	

|------------------|	
|------------------|x4	
|--7-7-8-8-9-9-10--|	
|------------------|	

|------------|	
|------------|x5	
|--12-9--12--|	
|------------|	
Rate this tab: 1 Star2 Stars3 Stars4 Stars5 Stars
Lyrics for This Tab: Take Up Thy Stethoscope and Walk Lyrics by Pink Floyd

Talk about Take Up Thy Stethoscope and Walk Bass Tab

Comment on This Tab

Take Up Thy Stethoscope and Walk Related Tabs