Pink Floyd Guitar Tabs and More @ PinkFloydTabs.com

Us and Them Bass Tab

Us and Them Tab - Pink Floyd

   24 seconds             intro                                         
|--------------|-----||-------------------------------------------------
|--------------|-----||*--------7--7--7-----------7--7--7---------------
|--------------|-----||*--5-----------------5-----------------5---------
|--------------|-----||-------------------------------------------------
                                                                        

                                                                        
------------------------------------------------------------------------
7--7--7-----------7--7--7-----------7--7--7-----------7--7--7-----------
------------5-----------------5-----------------5-----------------5-----
------------------------------------------------------------------------
                                                                        

                                                                        
------------------------------------------------------------------------
---7--7--7-----------7--7--7/12-----12--12--12-----12\---------7--7-----
---------------5-----------------------------------------5--------------
------------------------------------------------------------------------
                                                                        

              verses                                                    
----------||--||--------------------------------------------------------
7--------*||--||*--------7--7--7-----------7--7--7-----------7--7--7----
---------*||--||*--5-----------------5-----------------5----------------
------5---||--||--------------------------------------------------------
                                                                        

                                                                        
------------------------------------------------------------------------
---------7--7--7-----------7--7--7-----------7--7--7-----------7--7-----
---5-----------------5-----------------5-----------------5--------------
------------------------------------------------------------------------
                                                                        

                                                                        
---------------------------7--------------------------------------------
7--7-----------7--7--7--7-----7-----------7--7-----7--7-----------7-----
---------5--------------------------5-----------------------5-----------
------------------------------------------------------------------------
                                                                        

                                                                        
----------||------------------------------------------------------------
7--7--7--*||--------7--7-----7-----------7--7-----7-----------7--7------
---------*||--5--------------------5--------------------5---------------
----------||------------------------------------------------------------
                                                                        

                     chorus                                             
---------7--------|-----------------------------------------------------
---7-----------7--|-----------------------------------------------------
------------------|--5-----4-----2-----2-----2-----2-----2-----2--------
------------------|-----------------------------------------------------
                                                                        

                                                                        
------------------------------------------------------------------------
------------------------------------------------------------------------
2-----0-----------------------------3-----------2-----2-----0--2--2-----
------------3-----3-----3-----3-----------------------------------------
                                                                        

                      after first two chorus go back to verse                             
-------------------------------------------------------------
-------------------------------------------------------------
---0-----2-----2-----2-----0---------------------------------
---------------------------------3-----3-----3-----3--3------
                                                                        

on 3 go to coda        CODA               segue into Any Colour You Like                  
------|-----------------------------------------------------------------
------|-----------------------------------------------------------------
---3--|--------------------------------3--------------------------------
------|--------3-----3-----3-----3--------------------------------------
Rate this tab: 1 Star2 Stars3 Stars4 Stars5 Stars
Lyrics for This Tab: Us and Them Lyrics by Pink Floyd

Talk about Us and Them Bass Tab

Comment on This Tab

Us and Them Related Posts