Pink Floyd Guitar Tabs and More @ PinkFloydTabs.com

When You’re In Bass Tab

When You're In Tab - Pink Floyd

This is the whole song:

|------------------|----------------|-----------7--5---|
|*--7--7--5--7--7--|--7--7--5--7--7\|-----------------*|
|*-----------------|----------------|--0--------------*|
|------------------|----------------|------------------|


|--7--7--7--5--------|--7--7--7--5-------|---------------------|
|--------------7--7--|--------------7--7\|--5--------(5)\------|
|--------------------|-------------------|------------------0--|
|--------------------|-------------------|---------------------|


|--------------------|----------------|--------|
|--7--7--5--7--7-----|--7--7--5--7--7\|--------|
|--------------------|----------------|--0-----|
|--------------------|----------------|--------|


||------------------|----------------|--------7--5---|
||*--7--7--5--7--7--|--7--7--5--7--7\|--------------*|
||*-----------------|----------------|--0-----------*|
||------------------|----------------|---------------|


|--7--7--7--5--------|--7--7--7--5-------|-----7--5--|
|--------------7--7--|--------------7--7\|-----------|
|--------------------|-------------------|--0--------|
|--------------------|-------------------|-----------|


start fade out                                    4x                    
||------------------|----------------|-----7--5---|
||*--7--7--5--7--7--|--7--7--5--7--7\|-----------*|
||*-----------------|----------------|--0--------*|
||------------------|----------------|------------|


|--7--7--7--5-----------|--7--7--7--5-------|-----7--5--|
|--------------7-----7--|--------------7--7\|-----------|
|-----------------------|-------------------|--0--------|
|-----------------------|-------------------|-----------|


|-----------------|--------------------|-----|
|--7--7--5--7--7--|--7--7--5--7------7\|-----|
|-----------------|--------------------|--0--|
|-----------------|--------------------|-----|
Rate this tab: 1 Star2 Stars3 Stars4 Stars5 Stars
Tab filed under: Obscured by Clouds, Bass Tabs
Lyrics for This Tab: When You’re In Lyrics by Pink Floyd

Talk about When You’re In Bass Tab

Comment on This Tab

When You’re In Related Tabs