Pink Floyd Guitar Tabs and More @ PinkFloydTabs.com

Wot’s… Uh the Deal? Bass Tab

Wot's... Uh the Deal Tab - Pink Floyd

     H.           E  E     H        E  E  E  E     H.           E  E   
G||---------------------|-----------------------|---------------------|
D||--5------------------|--5-----------------5--|---------------------|
A||------------------5--|-----------------5-----|------------------5--|
E||---------------------|--------------7--------|---------------------|


  H        E  E  E  E     H.           E  E     H.           E  E   
--0--------L-----------|---------------------|---------------------|
--------------------5--|---------------5-----|--5---------------5--|
-----------------------|------------------5--|---------------------|
--------------5--7-----|---------------------|---------------------|


  Q.     E  Q.     E     Q.     E  E  Q    E     Q.     E  Q.     E   
----------------------|-----------------------|----------------------|
----------------------|-----------------------|--5------5--5------5--|
--5------5--5------5--|--5------5--5--5----5--|----------------------|
----------------------|-----------------------|----------------------|


  Q.     E  Q.     E     E  E  E  E  Q.     E     Q.     Q    E   E  E   
----------------------|------------------------|--------------2S--4-----|
--5---------5---------|--5-----5-----5---------|--5------5-----------5--|
---------5---------5--|-----5-----5---------5--|------------------------|
----------------------|------------------------|------------------------|


  Q.     Q    E  E  E     Q.     E  Q.     E     Q.     E  Q.     E   
-----------------------|----------------------|----------------------|
--5------5-------------|--5------5--5------5--|----------------------|
--------------5-----5--|----------------------|--5------5--5------5--|
-----------------7-----|----------------------|----------------------|


  E  Q    E  Q    Q       Q.     E  Q    E  E     Q.     E  E  E  E  E   
-----------------------|-----------------------|------------------------|
-----------------------|--5------5--5----------|--5------5--5--------5--|
--5--5----5--5----5----|-----------------7--5--|------------------5-----|
-----------------------|-----------------------|---------------7--------|


  Q.     Q    E   E  E     Q.     E  Q.     E     Q.     E  Q.     E   
--------------2S--4-----|----------------------|----------------------|
--5------5-----------5--|------------5---------|--5------5--5------5--|
------------------------|---------7---------7--|----------------------|
------------------------|----------------------|----------------------|


  Q.     E  Q.     E     Q.     E  E  Q.        Q.     E  E  E  E  E   
----------------------|----------------------|------------2--4--2-----|
--5------5--5------5--|----------------------|---------------------5--|
----------------------|--5------5--5--5------|--5------5--------------|
----------------------|----------------------|------------------------|


  Q.     E  E  E  E  E     E  E  E  E  Q.     E     Q.     E  Q    Q     
------------------------|------------------------|----------------------|
--5------5--5--------5--|-----------5--3------3--|----------------------|
------------------5-----|--------5---------------|--3------3--3----2----|
---------------7--------|-----7------------------|----------------------|


  Q    E  E  E  Q.        Q.     E  Q    E  E     Q    E  E  E  E  E  E   
-----------------------|-----------------------|----------------7--------|
-------7--7--7--7------|--5------5--5----------|-------------------------|
-----------------------|--------------------5--|--5----5--5--5-----------|
--5--------------------|-----------------7-----|-------------------7--8--|


  Q.     E  Q.     E     Q.     E  E  E  E  E     Q.     E  Q    E  E   
----------------------|------------------------|-----------------------|
----------------------|---------------------7--|--5------5--5----------|
--5------5--5------5--|--5------5--5--7--9-----|-----------------7--5--|
----------------------|------------------------|-----------------------|


  Q.     E  E  E  E  E     Q.     Q    E   E  E     Q.     E  Q.     E   
------------------------|--------------2S--4-----|----------------------|
--5------5--5--------5--|--5------5-----------5--|--L---------5---------|
------------------5-----|------------------------|---------7---------7--|
---------------7--------|------------------------|----------------------|


  Q.     E  Q.     E     Q.     E  Q.     E     Q.     E  E  Q.      
----------------------|----------------------|----------------------|
--5------5--5------5--|--5------5--5------5--|----------------------|
----------------------|----------------------|--5------5--5--5------|
----------------------|----------------------|----------------------|


  Q.     E  E  E  E  E     Q.     E  Q    E  E     Q.     E  E  E  E  E   
------------2--4--2-----|-----------------------|------------------------|
---------------------5--|--5------5--5----------|--5------5--5--------5--|
--5------5--------------|-----------------7--5--|------------------5-----|
------------------------|-----------------------|---------------7--------|


  Q.     Q    E   E  E     Q.     E  Q.     E     Q.     E  Q.     E   
--------------2S--4-----|----------------------|----------------------|
--5------5-----------5--|------------5---------|--5------5--5------5--|
------------------------|---------7---------7--|----------------------|
------------------------|----------------------|----------------------|


  Q.     E  Q.     E     Q.     E  E  Q.        Q.     E  E  E  E  E   
----------------------|----------------------|------------2--4--2-----|
--5------5--5------5--|----------------------|---------------------5--|
----------------------|--5------5--5--5------|--5------5--------------|
----------------------|----------------------|------------------------|


  Q.     E  E  E  E  E     E  E  E  E  Q.     E     Q.     E  Q    Q     
------------------------|------------------------|----------------------|
--5------5--5--------5--|-----------5--3------3--|----------------------|
------------------5-----|--------5---------------|--3------3--3----2----|
---------------7--------|-----7------------------|----------------------|


  Q    E  E  E  Q.        Q.     E  Q    E  E     Q    E  E  E  E  E  E   
-----------------------|-----------------------|----------------7--------|
-------7--7--7--7------|--5------5--5----------|-------------------------|
-----------------------|--------------------5--|--5----5--5--5-----------|
--5--------------------|-----------------7-----|-------------------7--8--|


  Q.     E  Q.     E     Q.     E  E  E  E  E     Q.     E  Q    E  E   
----------------------|------------------------|-----------------------|
----------------------|---------------------7--|--5------5--5----------|
--5------5--5------5--|--5------5--5--7--9-----|-----------------7--5--|
----------------------|------------------------|-----------------------|


  Q.     E  E  E  E  E     Q.     Q    E   E  E     Q.     E  Q.     E   
------------------------|--------------2S--4-----|----------------------|
--5------5--5--------5--|--5------5-----------5--|------------5---------|
------------------5-----|------------------------|---------7---------7--|
---------------7--------|------------------------|----------------------|


  Q.     E  Q.     E     Q.     E  Q.     E     Q.     E  E  Q.      
----------------------|----------------------|----------------------|
--5------5--5------5--|--5------5--5------5--|----------------------|
----------------------|----------------------|--5------5--5--5------|
----------------------|----------------------|----------------------|


  Q.     E  E  E  E  E     Q.     E  Q    E  E     Q.     E  E  E  E  E   
------------2--4--2-----|-----------------------|------------------------|
---------------------5--|--5------5--5----------|--5------5--5--------5--|
--5------5--------------|-----------------7--5--|------------------5-----|
------------------------|-----------------------|---------------7--------|


  Q.     Q    E   E  E     Q.     E  Q.     E     Q.     E  Q.     E   
--------------2S--4-----|----------------------|----------------------|
--5------5-----------5--|------------5---------|--5------5--5------5--|
------------------------|---------7---------7--|----------------------|
------------------------|----------------------|----------------------|


  Q.     E  Q.     E     Q.     E  E  Q.        Q.     E  E  E  E  E   
----------------------|----------------------|------------2--4--2-----|
--5------5--5------5--|----------------------|---------------------5--|
----------------------|--5------5--5--5------|--5------5--------------|
----------------------|----------------------|------------------------|


  Q.     E  E  E  E  E     Q.     E  E  E  E  E     Q.     Q    E   E  E   
------------------------|------------------------|--------------2S--4-----|
--5------5--5--------5--|--5------5--5--------5--|--5------5-----------5--|
------------------5-----|------------------5-----|------------------------|
---------------7--------|---------------7--------|------------------------|


  Q.     E  Q.     E     Q.     E  Q.     E     Q.     E  Q.     E   
----------------------|----------------------|----------------------|
------------5---------|--5------5--5------5--|--5------5--5------5--|
---------7---------7--|----------------------|----------------------|
----------------------|----------------------|----------------------|


  Q.     E  E  Q.        Q.     E  E  E  E  E     Q.     E  Q    E  E   
----------------------|------------2--4--2-----|-----------------------|
----------------------|---------------------5--|--5------5--5----------|
--5------5--5--5------|--5------5--------------|-----------------7--5--|
----------------------|------------------------|-----------------------|


  Q.     E  E  E  E  E     Q.     Q    E   E  E     Q.     E  Q.     E   
------------------------|--------------2S--4-----|----------------------|
--5------5--5--------5--|--5------5-----------5--|------------5---------|
------------------5-----|------------------------|---------7---------7--|
---------------7--------|------------------------|----------------------|


  Q.     E  Q.     E     Q.     E  Q.     E     Q.     E  E  Q.      
----------------------|----------------------|----------------------|
--5------5--5------5--|--5------5--5------5--|----------------------|
----------------------|----------------------|--5------5--5--5------|
----------------------|----------------------|----------------------|


  Q.     E  E  E  E  E     Q.     E  Q    E  E     Q.     E  E  E  E  E   
------------2--4--2-----|-----------------------|------------------------|
---------------------5--|--5------5--5----------|--5------5--5--------5--|
--5------5--------------|-----------------7--5--|------------------5-----|
------------------------|-----------------------|---------------7--------|


  Q.     Q    E   E  E     Q.     E  Q.     E     Q.     E  Q.     E   
--------------2S--4-----|----------------------|----------------------|
--5------5-----------5--|------------5---------|--5------5--5------5--|
------------------------|---------7---------7--|----------------------|
------------------------|----------------------|----------------------|


  Q.     E  Q.     E     Q.     E  E  Q.        Q.     E  E  E  E  E   
----------------------|----------------------|------------2--4--2-----|
--5------5--5------5--|----------------------|---------------------5--|
----------------------|--5------5--5--5------|--5------5--------------|
----------------------|----------------------|------------------------|


  Q.     E  E  E  E  E     E  E  E  E  Q.     E     Q.     E  Q    Q     
------------------------|------------------------|----------------------|
--5------5--5--------5--|-----------5--3------3--|----------------------|
------------------5-----|--------5---------------|--3------3--3----2----|
---------------7--------|-----7------------------|----------------------|


  Q    E  E  E  Q.        Q.     E  Q    E  E     Q    E  E  E  E  E  E   
-----------------------|-----------------------|----------------7--------|
-------7--7--7--7------|--5------5--5----------|-------------------------|
-----------------------|--------------------5--|--5----5--5--5-----------|
--5--------------------|-----------------7-----|-------------------7--8--|


  Q.     E  Q.     E     Q.     E  E  E  E  E     Q.     E  Q    E  E   
----------------------|------------------------|-----------------------|
----------------------|---------------------7--|--5------5--5----------|
--5------5--5------5--|--5------5--5--7--9-----|-----------------7--5--|
----------------------|------------------------|-----------------------|


  Q.     E  E  E  E  E     Q.     Q    E   E  E     Q.     E  Q.     E    
------------------------|--------------2S--4-----|----------------------|
--5------5--5--------5--|--5------5-----------5--|--L---------5---------|
------------------5-----|------------------------|---------7---------7--|
---------------7--------|------------------------|----------------------|
Rate this tab: 1 Star2 Stars3 Stars4 Stars5 Stars
Tab filed under: Obscured by Clouds, Bass Tabs
Lyrics for This Tab: Wot’s… Uh the Deal? Lyrics by Pink Floyd

Talk about Wot’s… Uh the Deal? Bass Tab

1 Comment on This Tab

  1. Skip to about the 50 second mark for the beginning of the song, on the video of this one.

Comment on This Tab

Wot’s… Uh the Deal? Related Tabs