Pink Floyd Guitar Tabs and More @ PinkFloydTabs.com

Young Lust Bass Tab

Young Lust Tab - Pink Floyd                                           
                                                   *
|------------------------------|---------------------------------------|
|------------------------------|---------------------------------------|
|---------5--7-----------------|---------5--7-----5-7---------------5--|
|--0---------------0-----5--5--|--0--------------------0----0--0-------|

|------------------------------------|
|------------------------------------|
|----------5--7-----------4-5-4-5p4--|
|--0----------------0----------------|
                      *
|--------------------------------------|
|--------------------------------------|
|------------5--7-----5-7--------------|
|--0-----------------------0-----0--0--|


(pre-chorus)
|-----------------------------------------------------
|--5-----5--3-----3--2-----2--------------------------
|-----------------------------5-----5------3-----3--2-
|-----------------------------------------------------

-------------------------|-------------------|
-------------------------|-------------------|
----2--------------------|-------------7--7--|
-------5-----5--3-----3--|--0----------------|


Chorus: 
|--------------------------------------------------------------
|--------------------------------------------------------------
|--------------------------------------------------------------
|--5--5-----5--5-----5--5-----5--5-----3--3-----3--3-----3--3--

---------------|-----------------------------------------------
---------------|-----------------------------------------------
---------------|-----------------------------------------------
---3--3--4--4--|--5--5-----5--5-----5--5-----5--5-----0--------



|------------------------------|----------------------------------------
|------------------------------|----------------------------------------
|----------5--7--------5-5-----|----------5--7-----7-----------------5--
|--0----------------0------5-5-|--0-------------------0-----0--0--------

|--------------------------------|--------0-/3-2-2p0-----------------------
|--------------------------------|------2-------------2p0-2p0------------2-
|------------5--7----------------|----------------------------2p0-2p0------
|---0--0--------------0--3-5-3-5/|--0---------------------------------3p0--


-- Pre-chorus, chorus


Solo                                                          3x
|-------------------------------------------------------|
|*-----------------------------------------------------*|
|*--7-----7----7-----7-----7-----7------10--x--9--7----*|
|-0----0-----0----0-----0-----0-----0-------------------|

|------------------------------|
|------2------4------5------5\-|
|------------------------------|
|--0-0----2-2----3-3----3-3----|

|------------------------------------------------------------|
|------5-----5--3-----3--2-----2-----------------------------|
|---------------------------------5-----5--3-----3--2-----2--|
|---0--------------------------------------------------------|

-------------------------------------------------------|
-------------------------------------------------------|
-------------------------------------------------------|
----5----5--3---3--5-----3--5-----3--5--3--5--3--5--3--|

|-----------------------------------------------------|
|-----------------------------------------------------|
|-----------------------------------------------------|
|--3-3---3-3---3-3---3-3--4-4--5--3-5---5-3-5-3-5-3-5-|
                                                                     
                              
--------------------------|
--------------------------|
----------7--7------------|
--0-----------------------|

Chorus

Fade out: improv. on main riff                                           

Notation Guide:
|--5p4--| - pulloff
|--4h5--| - hammer on
        * - staccato note
Rate this tab: 1 Star2 Stars3 Stars4 Stars5 Stars (3 votes, average: 5.00 out of 5)
Tab filed under: The Wall, Bass Tabs
Lyrics for This Tab: Young Lust Lyrics by Pink Floyd

Talk about Young Lust Bass Tab

Comment on This Tab

Young Lust Related Tabs