Pink Floyd Guitar Tabs and More @ PinkFloydTabs.com

Alan’s Psychedelic Breakfast Tab

Alan's Psychedelic Breakfast Tab - Pink Floyd

1:58

--7/12--12--7/12--12--11--11p12--11/7/4-------------------------------|
----------------------------------------------------------------------|
----------------------------------------------------------------------|
----------------------------------------------------------------------|
----------------------------------------------------------------------|
----------------------------------------------------------------------|

2:07

--11p12--11/7/4--4p5--4--0--2-----0-----------------------------------|
-------------------------------4--------------------------------------|
----------------------------------------------------------------------|
----------------------------------------------------------------------|
----------------------------------------------------------------------|
----------------------------------------------------------------------|

2:12

--2/4--3/7--7--7p9--7p9--7--------------------------------------------|
----------------------------------------------------------------------|
----------------------------------------------------------------------|
----------------------------------------------------------------------|
----------------------------------------------------------------------|
----------------------------------------------------------------------|
Rate this tab: 1 Star2 Stars3 Stars4 Stars5 Stars (2 votes, average: 2.50 out of 5)
Tab filed under: Atom Heart Mother, Guitar Tabs
Lyrics for This Tab: Alan’s Psychedelic Breakfast Lyrics by Pink Floyd

Talk about Alan’s Psychedelic Breakfast Guitar Tab

Comment on This Tab

Alan’s Psychedelic Breakfast Related Tabs