Pink Floyd Guitar Tabs and More @ PinkFloydTabs.com

Another Brick in the Wall Part 1 Tab

Another Brick in the Wall Part 1 Backing Track:

Audio clip: Adobe Flash Player (version 9 or above) is required to play this audio clip. Download the latest version here. You also need to have JavaScript enabled in your browser.


Drop D Tuning

Guitar Tuner from GTDB gtdb.org

Another Brick in the Wall Part 1 Tab - Pink Floyd

NOTE: This tab uses all standard tuning except for the "Guitar 4"
parts which uses Drop D Tuning. You can tune your guitar accordingly
with the Drop D tuner above.

INTRO:(fade in)
 gtr. 1* (w/chorus & delay) P.M. throughout
 Rhy. Fig. 1---------------------] w/Rhy. Fig. 1
------------------------------------------------------------------
------------------------------------------------------------------
------------------------------------------------------------------
------------------------------------------------------------------
-5'''''''''''''''''''''''''''''''---------------------------------
------------------------------------------------------------------
 *two guitars arranged for one

                  Fill 1--------------------------]
------------------------------------------------------------------
------------------------------------------------------------------
------------------------------------------------------------------
----------------------------------------------------------3---5p3-
-3h5-x-3h5'''''''''''''''''''''''-5'''''''''''''''''''''''--5-----
------------------------------------------------------------------


 w/Rhy. Fig. 1           Fill 2--------------------------]
------------------------------------------------------------------
------------------------------------------------------------------
------------------------------------------------------------------
------------------------------------------------------------------
----------------------------------5'''''''''''''''''''''''''''3p0-
------------------------------------------------------------------


 w/Rhy. Fig. 1           w/Fill 1
------------------------------------------------------------------
------------------------------------------------------------------

 gtr. 2 (w/chorus & delay)
 w/Rhy. Fig. 1 (3x)
-------------------------------------------------------------7\(5)
------------------------------------------------------------------
---------------------------------------------------------5/(7)\(5)
------------------------------------------------------------------
------------------------------------------------------------------
------------------------------------------------------------------
 Dad - dy's flown        'cross the o  -  cean

 gtr. 3 (w/chorus & delay)    w/Fill 2
------------------------------------------------------------------
-5--------------------------------5-------------------------------
-5--------------------------------4-------------------------------
-3--------------------------------3-------------------------------
------------------------------------------------------------------
------------------------------------------------------------------

 gtr. 3
 w/Rhy. Fig. 1 (3x)	  gtr. 2
------------------------------------------------------------------
-5----------------------------------------------------------------
-5----------------------------------------------------------7/----
-3----------------------------------------------------------------
------------------------------------------------------------------
------------------------------------------------------------------
 Leav - ing just  a       mem - o - ry
                  gtr. 1
                  Fill 3--------------------------]
------------------------------------------------------------------
-13b(15)----------------------------------------------------------
------------------------------------------------------------------
--------------------------------------------------------------3p0-
----------------------------------5'''''''''''''''''''''''''''----
------------------------------------------------------------------
                                A
 gtr. 2
 w/Rhy. Fig. 1 (3x)
------------------------------------------------------------------
------------------------------------------------------------------
-------------------------------------------------------(5)/(7)\(5)
-------------------------------------------------------(5)/(7)\(5)
------------------------------------------------------------------
------------------------------------------------------------------
 snap - shot  in the      fam - 'ly al  -  bum

 w/wind              w/Fill 1
------------------------------------------------------------------
------------------------------------------------------------------

 gtr. 1
 w/Rhy. Fig. 1
------------------------------------------------------------------
------------------------------------------------------------------
------------------------------------------------------------------
------------------------------------------------------------------
----------------------------------5'''''''''''''''''''''''''''----
--------------------------------------------------------------1-1-

 gtr. 4* (w/dist. & chorus)
------------------------------------------------------------------
------------------------------------------------------------------
------------------------------------------------------------------
-------------------------------------------------------------3/(5)
-------------------------------------------------------------3/(5)
-------------------------------------------------------------3/(5)
 *gtr. 4 w/drop D tuning
 Dad-dy     what else     did   you leave    for me

 Rhy. Fig. 2---------------------] w/Rhy. Fig. 2 (3x)
------------------------------------------------------------------
------------------------------------------------------------------
------------------------------------------------------------------
------------------------------------------------------------------
------------------------------------------------------------------
-3'''''''''''''''''''''''''''''''---------------------------------

                 w/bar
------------------------------------------------------------10-10-
--------------------------------------------------------x---8--8--
---------------------------------~~~~~~~~~~~~~~~~~~~~~~~x---7--7--
-5-------------------------------~~~~~~~~~~~~~~~~~~~~~~~----------
-5-------------------------------~~~~~~~~~~~~~~~~~~~~~~~----------
-5-------------------------------~~~~~~~~~~~~~~~~~~~~~~~----------

 gtr. 4     w/bar
-10--------------~~~~~~~~~~~~~~~~~~~~~~~~~~~~~~~~~~~~~~~~~~~~~~~~~
-8---------------~~~~~~~~~~~~~~~~~~~~~~~~~~~~~~~~~~~~~~~~~~~~~~~~~
-7---------------~~~~~~~~~~~~~~~~~~~~~~~~~~~~~~~~~~~~~~~~~~~~~~~~~
------------------------------------------------------------------
------------------------------------------------------------------
------------------------------------------------------------------
-3--------------------------------3-------------------------------
                  Dad  what d'ya leave behind for
 gtr. 2
 w/Rhy. Fig. 1 (2x)
------------------------------------------------------------------
------------------------------------------------------------------
----------------------------------7-------------------------------
---------------------------5-7-7--------------------------5/------
-5'''''''''''''''''''''''''-----------------------------------5\--
------------------------------------------------------------------
 me

 gtr. 1
------------------------------------------------------------------
------------------------------------------------------------------
-2----------------------------------------------------------------
-3-3'''''''''''''0'''''''''''''''-5''''''''''''''''''''''''''5/(7)
----------------------------------3''''''''''''''''''''''''''3/(5)
------------------------------------------------------------------

 gtr. 2
------------------------------------------------------------------
------------------------------------------------------------------
------------------------------------------------------------------
-3-----------------------3---3----5'''''''''''''''''''''''''''''''
-3-----------------------3---3----3'''''''''''''''''''''''''''''''
-1-----------------------1---1------------------------------------
             PM--]
     All in all it was        just a brick in  the

 Rhy. Fig. 3--------------------] w/Rhy. Fig. 3
------------------------------------------------------------------
------------------------------------------------------------------
------------------------------------------------------------------
-7'''''''''''''''''''''''''''''''---------------------------------
-5'''''''''''''''''''''''''''''''---------------------------------
------------------------------------------------------------------

------------------------------------------------------------------
------------------------------------------------------------------
------------------------------------------------------------------
-7'''''''''''''''''''''''''''''''-7'''''''''''''''''''''''''''----
-5'''''''''''''''''''''''''''''''-5'''''''''''''''''''''''''''5\--
--------------------------------------------------------------5\--
 wall

------------------------------------------------------------------
------------------------------------------------------------------
-2'''''''''''''''''''''''''''''''---------------------------------
-3'''''''''''''''''''''''''''''''-5'''''''''''''''''''''''''''''''
----------------------------------3'''''''''''''''''''''''''''''''
------------------------------------------------------------------

------------------------------------------------------------------
----------------------------------------1-------------------------
----------------------------------0-----0-----0-------------5-6-7-
-3-----------------------3---3----2-----2-----2-------5-6-7-------
-3-----------------------3---3----3-----------3-------------------
-1-----------------------1---1------------------------------------
             PM--]
     All in all it was    all  just bricks in  the
 gtr. 2
 w/Rhy. Fig. 1 (2x)
------------------------------------------------------------------
------------------------------------------------------------------
-----------5------------------------------------------------------
---------7---5-7---5-7----------------------------------------5b--
-----------------8-----8B5---3-5----5-3-4-5-3-4-5---------------5-
------------------------------------------------------------------
 wall
 gtr. 4
 w/Rhy. Fig. 3 (3x)         gtr. 2
------------------------------------------------------------------
-------------------------------------------------------10--12\(10)
-------------------------------------------------------10--12\(10)
-----------------------------------------------------------12\(10)
------------------------------------------------------------------
-0----------------------------------------------------------------

 gtr. 1		   w/vocal sounds
------------------------------------------------------------------
------------------------------------------------------------------
------------------------------------------------------------------
----------------------------------7'''''''''''''''''''''''--------
----------------------------------5'''''''''''''''''''''''5---3Bp0
------------------------------------------------------------------

 gtr. 3
------13--15\(13)-------------------------------------------------
------15--17\(15)-------------------------------------------------
---------------------------------------5--(5)/(7)\(5)-------------
---------------------------------------5--(5)/(7)\(5)-------------
----------------------------------------------------------5---3h5-
------------------------------------------------------------------

 gtr. 2
------------------------------------------------------------------
------------------------------------------------------------------
----------------------10--12\(10)---------------------------------
----------------------10--12\(10)---------------------------------
----------------------------------------------------------5---3h5-
------------------------------------------------------------------

 gtrs. 2 & 3
 w/Rhy. Fig. 1 (3x)
------------------------------------------------------------------
------------------------------------------------------------------
------------------------------------------------------------------
---------------------------------------------------------7\(5)3---
-------------------------------------------------------5----------
------------------------------------------------------------------

 gtr. 1
------------------------------------------------------------------
------------------------------------------------------------------
------------------------------------------------------------------
------------------------------------------------------------------
----------------------------------5'''''''''''''''''''''''''--3p0-
------------------------------------------------------------5-----

 gtr. 2              
------------------------------------------------------------------
-------------------------------------------------------10--12\(10)
-------------------------------------------------------10--12\(10)
-------------------------------------------------------10--12\(10)
------------------------------------------------------------------
------------------------------------------------------------------

 gtr. 1                w/Rhy. Fig. 1 (4x)
----------------------------------------------------------------------
----------------------------------------------------------------------
----------------------------------------------------------------------
----------------------------------------------------------------------
-5-3p0-5''''''''''''''''''''''''''''''--------------------------------
----------------------------------------------------------------------

 gtr. 3
--------13--(13)/(15)\(13)--------------------------------------------
--------15--(15)/(17)\(15)--------------------------------------------
-------------------------------------------5--(5)/(7)\(5)----5---6\(5)
-------------------------------------------7--(7)/(9)\(7)----5---6\(5)
----------------------------------------------------------------------
----------------------------------------------------------------------

 gtr. 2
----------------------------------------------------------------------
----------------------------------------------------------------------
---------------------------10--12\(10)-----------------------5---6\(5)
---------------------------12--14\(12)-----------------------5---6\(5)
----------------------------------------------------------------------
----------------------------------------------------------------------

 gtrs. 2 & 3
------------------------------------------------------------------
------------------------------------------------------------------
---------------------------------------------------------3---4\(3)
---------------------------------------------------------3---4\(3)
------------------------------------------------------------------
------------------------------------------------------------------

 gtr. 1
------------------------------------------------------------------
------------------------------------------------------------------
------------------------------------------------------------------
------------------------------------------------------------------
----------------------------------5'''''''''''''''''''3'''''''''''
------------------------------------------------------------------

 gtrs. 2 & 3
------------------------------------------------------------------
------------------------------------------------------------------
------------------------------------------------------------------
------------------------------------------------------------------
------------------------------------------------------3'''''''''''
------------------------------------------------------------------
                  "One,  two,  three"

 gtr. 1              w/Rhy. Fig. 1 (2x)
------------------------------------------------------------------
------------------------------------------------------------------
------------------------------------------------------------------
------------------------------------------------------------------
-3h5-5'''''''''''''''''''''''''''---------------------------------
------------------------------------------------------------------

 gtrs. 2 & 3                      *
------------------------------------------------------------------
--------------------------------------------------------------5-6-
------------------------------------------------------5---7-5-5-7-
------------------------------------------------------5---7-5-----
-/3h5-------------------------------------------------------------
------------------------------------------------------------------
 *gtr. 2 plays higher note, gtr. 3 plays lower note
 [whistle]	    "Hey!"

 fade in schoolyard sounds
------------------------------------------------------------------
------------------------------------------------------------------
------------------------------------------------------------------
------------------------------------------------------------------
----------------------------------5'''''''''''''''''''------------
------------------------------------------------------5-------5-5-

-----5----------------------------------------------------5P3-----
-----6b-----------------------------------------------(5)h6p5-7~~~
--------------------------------------------------------------7\--
------------------------------------------------------------------
------------------------------------------------------------------
------------------------------------------------------------------

 w/Rhy. Fig. 1
------------------------------------------------------------------
------------------------------------------------------------------
------------------------------------------------------------------
------------------------------------------------------------------
----------------------------------5'''''''''''''''''''''''5---3p0-
------------------------------------------------------------5-----

------------------------------------------------------------------
--------------------------------------------------------------5-6-
------------------------------------------------------5---7---5-7~
------------------------------------------------------5---7-------
------------------------------------------------------------------
------------------------------------------------------------------

 w/Rhy. Fig. 1           Fill 4--------------------------]
------------------------------------------------------------------
------------------------------------------------------------------
------------------------------------------------------------------
--------------------------------------------------------------3bp0
----------------------------------5'''''''''''''''''''''''''''----
------------------------------------------------------------------

-----5-------------------------------------------------7b(8)--7p5-
-----6B------------------------------------------------8b(10)-8p6-
~~~~~-------------------------------------------------------------
------------------------------------------------------------------
------------------------------------------------------------------
------------------------------------------------------------------

 gtrs. 2 & 3
 w/Rhy. Fig. 1           w/Fill 2
~~~~~~~~~~~~~~~~~~~~~~~~~~~~~~~~~~~~~~~~~~~~~~~~~~----------------
~~~~~~~~~~~~~~~~~~~~~~~~~~~~~~~~~~~~~~~~~~~~~~~~~~------------5-6~
------------------------------------------------------5---7---5-7~
------------------------------------------------------5---7-------
------------------------------------------------------------------
------------------------------------------------------------------

 w/Rhy. Fig. 1           w/Fill 1
~~~~~5-----------------------------------------------10b(12)-10p8-
~~~~~6-----------------------------------------------12b(13)-12p10
------------------------------------------------------------------
------------------------------------------------------------------
------------------------------------------------------------------
------------------------------------------------------------------

------------------------------------------------------------------
------------------------------------------------------------------
-5-----------3---5-----------3----5-----------3---5-----------3---
------------------------------------------------------------------

 w/Rhy. Fig. 1           w/Fill 4
~~~~~~~~~~~~~~~~~~~~~~~~~~~~~~~~~~~~~~~~~~~~~~~~------------------
~~~~~~~~~~~~~~~~~~~~~~~~~~~~~~~~~~~~~~~~~~~~~~~~------------12-13-
--------------------------------------------------12--14-12-12-14-
--------------------------------------------------14--15----------
------------------------------------------------------------------
------------------------------------------------------------------

 gtr. 1
 w/Rhy. Fig. 1
------------------------------------------------------------------
------------------------------------------------------------------
------------------------------------------------------------------
------------------------------------------------------------------
----------------------------------5'''''''''''''''''''3-5-5---3p0-
------------------------------------------------------------------

 gtrs. 2 & 3
-----12---------------------------------------------------12-b(13)
-----13---------------------------------------------------13-b(15)
------------------------------------------------------------------
------------------------------------------------------------------
------------------------------------------------------------------
------------------------------------------------------------------

 w/Rhy. Fig. 1
------------------------------------------------------------------
------------------------------------------------------------------
------------------------------------------------------------------
--------------------------------------------------------------3p0-
----------------------------------5---3-5-5---3-5-5---3-5-5---3p0-
------------------------------------------------------------------

-(13)----------------~~~~~~~~~~~~~~~~~~~~~~~~~~~~~~~~~~~~~--------
-(15)----------------~~~~~~~~~~~~~~~~~~~~~~~~~~~~~~~~~~~~~--------
------------------------------------------------------------------
------------------------------------------------------------------
------------------------------------------------------------------
------------------------------------------------------------------

 gtr. 1
 w/Rhy. Fig. 1
------------------------------------------------------------------
------------------------------------------------------------------
------------------------------------------------------------------
----------------------------------------------------------3b--5-3b
----------------------------------5''''''''''''3-5-5---3b5--5-----
------------------------------------------------------------------

 gtr. 3
------------------------------------------------------------------
---------------(15)r(13)(15)r(13)(15)r(13)b(15)(15)--~~~~~~~~~~~~~
------------------------------------------------------------------
------------------------------------------------------------------
------------------------------------------------------------------
------------------------------------------------------------------

 w/Rhy. Fig. 1
------------------------------------------------------------------
------------------------------------------------------------------
------------------------------------------------------------------
------------------------------------------------------------------
----------------------------------5'''''''''''''''''''''''3---3b--
------------------------------------------------------------------


------------------------------------------------------------------
~~~~~~~~~~~~~~~~~------------------------------------------13b(15)
------------------------------------------------------------------
------------------------------------------------------------------
------------------------------------------------------------------
------------------------------------------------------------------

 w/Rhy. Fig. 1
------------------------------------------------------------------
------------------------------------------------------------------
------------------------------------------------------------------
--------------------------------------------------------------3p0-
----------------------------------5'''''''''''''''''''3h5---3-----
------------------------------------------------------------------

------------------------------------------------------------------
-13b(15)(15)~~~~~~~~~~~~~~~~~~~~~~~~~~~~~~~~~~~~~~~~~~~~~~--------
------------------------------------------------------------------
------------------------------------------------------------------
------------------------------------------------------------------
------------------------------------------------------------------

		   begin fade
------------------------------------------------------------------
------------------------------------------------------------------
------------------------------------------------------------------
-0-----------------------------------------------------------3b---
-0---0-3-5'''''''''''''''''''''''''''''''''''''''''''3h5-5-5----5-
------------------------------------------------------------------

------------------------------------------------------------------
----------------------------------------------------13b(15)13b(15)
------------------------------------------------------------------
------------------------------------------------------------------
------------------------------------------------------------------
------------------------------------------------------------------

 gtr. 1
 w/Rhy. Fig. 1
------------------------------------------------------------------
------------------------------------------------------------------
------------------------------------------------------------------
------------------------------------------------------------------
----------------------------------5'''''''''''''''''''''''3-3-3---
----------------------------------------------------------------5-

 gtr. 1   fade in helicopter
------------------------------------------------------------------
------------------------------------------------------------------
------------------------------------------------------------------
--------------------------------------------------------------3b--
-3/(5)-5-3-5---3-5'''''''''''''''-5---3-5-5-3-3-5-5-3-3-5-5-3---5-
------------------------------------------------------------------

 gtr. 3
------------------------------------------------------------------
--------------------------------------------------------13b(14)13b
------------------------------------------------------------------
------------------------------------------------------------------
------------------------------------------------------------------
------------------------------------------------------------------

 w/Rhy. Fig. 1
------------------------------------------------------------------
------------------------------------------------------------------
------------------------------------------------------------------
----------------------------------------------------------3---3p0-
----------------------------------5'''''''''''''''''''''''--5-----
------------------------------------------------------------------

------------------------------------------------------------------
(15)~~~~~~~~~~~~~~~~~~~~~~~~~~~~~~~~~~~~~~~~~~~~~~----------------
------------------------------------------------------------------
------------------------------------------------------------------
------------------------------------------------------------------
------------------------------------------------------------------

 gtr. 1		 w/Fill 2
------------------------------------------------------------------
------------------------------------------------------------------
------------------------------------------------------------------
------------------------------------------------------------------
-5-3---5'''''''''''''''''''''''''---------------------------------
-----5------------------------------------------------------------

 w/Rhy. Fig. 1	fade out
---------------------------------		
--------------------------------- "You! Yes, you!	
--------------------------------- Stand still, laddy!" 
---------------------------------		
---------------------------------		
---------------------------------		
Rate this tab: 1 Star2 Stars3 Stars4 Stars5 Stars (2 votes, average: 2.50 out of 5)
Tab filed under: The Wall, Guitar Tabs
Lyrics for This Tab: Another Brick in the Wall Part 1 Lyrics by Pink Floyd

Talk about Another Brick in the Wall Part 1 Guitar Tab

1 Comment on This Tab

  1. For more on different guitar tunings and other Pink Floyd tabs on this site that use them, visit our Alternate Tunings page.

Comment on This Tab

Another Brick in the Wall Part 1 Related Tabs