Pink Floyd Guitar Tabs and More @ PinkFloydTabs.com

Biding My Time Tab

Biding My Time Tab - Pink Floyd

     /-3-\    /-3-\    /-3-\    /-3-\
    /     \  /     \  /     \  /     \
e |-8-----8--------8-----------------8--|
B |-9--------------------------------9--|
G |-10-------------------------------10-|
D |-10----------------------------------|
A |-------------------------------------|  \
E |-------------------------------------|   \
                                             \
     /-3-\    /-3-\    /-3-\    /-3-\         Play twice.
    /     \  /     \  /     \  /     \       /
e |-11----11-10----10-9-----9--8--------|   /
B |-------------------------------------|  /
G |----------------------------------10-|
D |-------------------------------------|
A |-------------------------------------|
E |-------------------------------------|

     /-3-\    /-3-\    /-3-\    /-3-\
    /     \  /     \  /     \  /     \
e |-8-----8--------8--------------------|
B |-9-----------------------------------|
G |-10----------------------------------|
D |-10-------------------------------10-|
A |-------------------------------8-----|
E |-------------------------------------|

     /-3-\    /-3-\    /-3-\    /-3-\
    /     \  /     \  /     \  /     \
e |-------------------9-----8-----------|
B |-9--------9--------10----9-----------|
G |-10-------10-------11----10----------|
D |-------10-------10-------------------|
A |-------------------------------------|
E |-------------------------------------|

     /-3-\    /-3-\    /-3-\    /-3-\
    /     \  /     \  /     \  /     \
e |----------8--------7-----8-----------|
B |----------9--------8-----9-----------|
G |-------10-10-------9-----10----------|
D |-10-------------------------------10-|
A |-------------------------------------|
E |-------------------------------------|

     /-3-\    /-3-\    /-3-\    /-3-\
    /     \  /     \  /     \  /     \
e |-8--------7-----8--------------------|
B |-9--------8-----9--------------------|
G |-10-------9-----10-------------------|
D |-------------------------------------|
A |-------------------------------------|
E |-------------------------------------|

Intro:
E :------------------------|0-----------------------|
B :0---------0-------------|------4-----3-----2-----|
G :0---0-----0-----0-----0-|----0-----0-----0-------|
D :2---------2-------------|------------------------|
A :------------------------|------------------0---2-|
E :------0-----------0-----|0-----2-----3-----------|

E :------0-----------------|0-----------------------|
B :0---------0-------------|------4-----3-----2-----|
G :----0-----------0-----0-|----0-----0-----0-------|
D :------------------2-----|------------------------|
A :------------------------|------------------0---2-|
E :0-----0-----------------|0-----2-----3-----------|

E :------------------------|------------------------|
B :0---------------0-------|------------------------|
G :----0-------------0-----|------2---0-------------|
D :----------2-------------|------1---1-----4-------|
A :------0-2---------------|----2-----------2-------|
E :0-----------0-------0-1-|2-----2---2-----2-------|

E :------------------------|------------------------|
B :5-----5-----4--5------4-|5---5-4---5-----5-------|
G :7-----7-----6--7------6-|7---7-6---7-------------|
D :6-----6-----5--6------5-|6---6-5---6-----------5-|
A :7-----7-----6--7------6-|7---7-6---7-------7-----|
E :------------------------|------------------------|

Verse 1:
E :------------------------|0-----------------------|
B :0---------0-------------|------4-----3-----2-----|
G :0---0-----0-----0-----0-|----0-----0-----0-------|
D :----------2-------------|------------------------|
A :------------------------|------------------0---2-|
E :0-----0-----------0-----|0-----2-----3-----------|
   wasting my time...

E :----------0-------------|0-----------------------|
B :0-----------0-----------|------4-----3-----2-----|
G :----0-----------0-------|----0-----0-----0-------|
D :----------------------2-|------------------------|
A :------0-2---------0-2---|------------------0---2-|
E :0-----------0-----------|0-----2-----3-----------|
   resting my mind...

E :----------0-------------|------------------------|
B :0-----------0-----------|------------------------|
G :----0-----------0-------|------2---0-------------|
D :------------------------|------1---1-----4-------|
A :------0-2---------2-----|----2-----------2-------|
E :0-----------0-------0-1-|2-----2---2-----2-------|
  and I'll never pine for the sad days and the bad days

E :------------------------|------------------------|
B :5-----5-----4--5------4-|5---5-4---5-----5-------|
G :7-----7-----6--7------6-|7---7-6---7-------------|
D :6-----6-----5--6------5-|6---6-5---6-----------5-|
A :7-----7-----6--7------6-|7---7-6---7-------7-----|
E :------------------------|------------------------|
   when we was working from 9  to 5.

Verse 2:
E :------------------------|0-----------------------|
B :0---------0-------------|------4-----3-----2-----|
G :0---0-----0-----0-----0-|----0-----0-----0-------|
D :----------2-------------|------------------------|
A :------------------------|------------------0---2-|
E :0-----0-----------0-----|0-----2-----3-----------|
   and if you don't mind...

E :----------0-------------|0-----------------------|
B :0-----------0-----------|------4-----3-----2-----|
G :----0-----------0-------|----0-----0-----0-------|
D :----------------------2-|------------------------|
A :------0-2---------0-2---|------------------0---2-|
E :0-----------0-----------|0-----2-----3-----------|
   I'll spend my time...

E :----------0-------------|------------------------|
B :0-----------0-----------|------------------------|
G :----0-----------0-------|------2---0-------------|
D :------------------------|------1---1-----4-------|
A :------0-2---------2-----|----2-----------2-------|
E :0-----------0-------0-1-|2-----2---2-----2-------|
   here by the fireside in the warm light of the love in her

E :------------------------|------------------------|
B :8-8-8-8-8-8-8-8-8-8-8-8-|3---3-3---3-3---3-3---3-|
G :7-7-7-7-7-7-7-7-7-7-7-7-|2---2-2---2-2---2-2---2-|
D :6-6-6-6-6-6-6-6-6-6-6-6-|1---1-1---1-1---1-1---1-|
A :7-7-7-7-7-7-7-7-7-7-7-7-|2---2-2---2-2---2-2---2-|
E :------------------------|------------------------|
   eyes!

Bridge:
E :----------0-------------|0-----------------------|
B :0-----------0-----------|--0---4---4-3---3-2-----|
G :----0-----------0-----0-|----0---0-----0-----0---|
D :------------------------|------------------------|
A :------0-2---------0-2---|------------------0---2-|
E :0-----------0-----------|0-----2-----3-----------|

E :------------0-----------|0-----------------------|
B :0---------------0-------|--0---4---4-3---3-2-----|
G :--0-------0-------0-----|----0---0-----0-----0---|
D :--------2-----------2---|------------------------|
A :----0-2---------------2-|------------------0---2-|
E :0-----------------------|0-----2-----3-----------|

E :------------0-----------|------------------------|
B :0---------------0-------|------------------------|
G :----0-----0-------0-----|------2---0-------------|
D :------------------------|------1---1-----4-------|
A :------0-2---------------|----2-----------2-------|
E :0-------------------0-1-|2-----2---2-----2-------|

E :------------------------|------------------------|
B :5-----5-----4--5------4-|5---5-4---5-----5-------|
G :7-----7-----6--7------6-|7---7-6---7-------------|
D :6-----6-----5--6------5-|6---6-5---6-----------5-|
A :7-----7-----6--7------6-|7---7-6---7-------7-----|
E :------------------------|------------------------|

E :------------------------|0-----------------------|
B :0---------0-----------0-|--0---4-----3---3-2-----|
G :0---0-----------0-------|----0-----0---0---------|
D :------------------------|------------------------|
A :------0---2-------------|------------------0---2-|
E :0---------0-------0-----|0-----2-----3-----------|
   and if you don't mind...

E :------0-----------------|0-----------------------|
B :0---------0-------------|--0---4-----3---3-2-----|
G :----0-----------0-----0-|----0-----0---0---------|
D :------------------------|------------------------|
A :------------------0-2---|------------------0---2-|
E :0-----0-----------------|0-----2-----3-----------|
   I'll spend my time...

E :------------0-----------|------------------------|
B :0---------------0-------|------------------------|
G :----0-----0-------0-----|------2---0-------------|
D :------------------------|------1---1-----4-------|
A :------0-2---------------|----2-----------2-------|
E :0-------------------0-1-|2-----2---2-----2-------|
   here by the fireside in the warm light of the love in her

E :------------------------|------------------------|
B :------------3-----3-----|4---5-6---5-------------|
G :1-----1-----2-----2-----|6---7-8---7-------------|
D :2-----2-----1-----1-----|5---6-7---6-------------|
A :2-----2-----2-----2-----|6---7-8---7-------------|
E :0-----0-----------------|------------0-----------|
   eyes!
Rate this tab: 1 Star2 Stars3 Stars4 Stars5 Stars (1 votes, average: 3.00 out of 5)
Tab filed under: Relics, Guitar Tabs
Lyrics for This Tab: Biding My Time Lyrics by Pink Floyd

Talk about Biding My Time Guitar Tab

Comment on This Tab

Biding My Time Related Tabs