Pink Floyd Guitar Tabs and More @ PinkFloydTabs.com

Brain Damage Tab

Available Video Lesson

Brain Damage Backing Track:

Audio clip: Adobe Flash Player (version 9 or above) is required to play this audio clip. Download the latest version here. You also need to have JavaScript enabled in your browser.


Brain Damage Tab - Pink Floyd

intro:
|-2----2----2----2----2----2----2----2--|
|-3-----3---------3---------3---------3-|
|-2--2---------2---------2---------2----|
|-0-0---------0---------0---------0-----|
|---------------------------------------|
|---------------------------------------|

|-2----2----2----2----2----2----2----2--|
|-3-----3---------3---------3---------3-|
|-2--2---------2---------2---------2----|
|-0-0---------0---------0---------0-----|
|---------------------------------------|
|---------------------------------------|

during singing:
Guitar 1:
|-------2----2----2----2----1----1----1----1--|
|-------------3---------3------0--0------0--0-|
|----------2---------2--------0---------0-----|
|---------0---------0-------------------------|
|---------------------------------------------|
|---------------------------------------------|

Guitar 2:
|--------------------------------19b20b19-----|
|-19b20b19------------------------------------|
|---------------------------------------------|
|---------------------------------------------|
|---------------------------------------------|
|---------------------------------------------|

Guitar 1:
|-------2----2----2----2----1----1----1----1--|
|-------------3---------3------0--0------0--0-|
|----------2---------2--------0---------0-----|
|---------0---------0-------------------------|
|---------------------------------------------|
|---------------------------------------------|

Guitar 2:
|--------------------------------19b20b19-----|
|-19b20b19------------------------------------|
|---------------------------------------------|
|---------------------------------------------|
|---------------------------------------------|
|---------------------------------------------|

Guitar 1:
|-------2----2----2----2-----------------------3----3--3----3--|
|-------------3---------3---9----9----9----9-------------------|
|----------2---------2------------9---------9--------0-------0-|
|---------0---------0----------9---------9--------2-------2----|
|-----------------------------7---------7--------0-------0-----|
|--------------------------------------------------------------|

Guitar 2:
|---------------------16b17b16----------------|
|---------------------------------------------|
|---------------------------------------------|
|---------------------------------------------|
|---------------------------------------------|
|---------------------------------------------|

Guitar 1:
|-2-------2---0-------0-----2-----2-0-|
|-3---3-----------3-----3---1---1-----|
|-2-----------------2-------2-2-------|
|-0-0---0---0---0---0-------0---------|
|-------------------------0-----------|
|-------------------------------------|

No Guitar 2

Chorus:
G                            A
  And if the dam breaks open many years too soon

    C                                   G
And if there is no room upon the hill

G                                    A7
  And if your head explodes with dark forebodings too

     C                                   G     Bm7  Em7  A  
I'll see you on the dark side of the moon.


|-2----2----2----2----2----2----2----2--|
|-3-----3---------3---------3---------3-|
|-2--2---------2---------2---------2----|
|-0-0---------0---------0---------0-----|
|---------------------------------------|
|---------------------------------------|

|-2----2----2----2----2----2----2----2--|
|-3-----3---------3---------3---------3-|
|-2--2---------2---------2---------2----|
|-0-0---------0---------0---------0-----|
|---------------------------------------|
|---------------------------------------|

during singing:
Guitar 1:
|-------2----2----2----2----1----1----1----1--|
|-------------3---------3------0--0------0--0-|
|----------2---------2--------0---------0-----|
|---------0---------0-------------------------|
|---------------------------------------------|
|---------------------------------------------|

Guitar 2:
|--------------------------------19b20b19-----|
|-19b20b19------------------------------------|
|---------------------------------------------|
|---------------------------------------------|
|---------------------------------------------|
|---------------------------------------------|

Guitar 1:
|-------2----2----2----2----1----1----1----1--|
|-------------3---------3------0--0------0--0-|
|----------2---------2--------0---------0-----|
|---------0---------0-------------------------|
|---------------------------------------------|
|---------------------------------------------|

Guitar 2:
|--------------------------------19b20b19-----|
|-19b20b19------------------------------------|
|---------------------------------------------|
|---------------------------------------------|
|---------------------------------------------|
|---------------------------------------------|

Guitar 1:
|-------2----2----2----2-----------------------3----3--3----3--|
|-------------3---------3---9----9----9----9-------------------|
|----------2---------2------------9---------9--------0-------0-|
|---------0---------0----------9---------9--------2-------2----|
|-----------------------------7---------7--------0-------0-----|
|--------------------------------------------------------------|

Guitar 2:
|---------------------16b17b16----------------|
|---------------------------------------------|
|---------------------------------------------|
|---------------------------------------------|
|---------------------------------------------|
|---------------------------------------------|

Guitar 1:
|-2-------2---0-------0-----2-----2-0-|
|-3---3-----------3-----3---1---1-----|
|-2-----------------2-------2-2-------|
|-0-0---0---0---0---0-------0---------|
|-------------------------0-----------|
|-------------------------------------|

No Guitar 2

G                          A
  And if the cloud bursts, thunder in your ear

C                                   G
  You shout and no one seems to hear.

                                 A           A7        A
And if the band you're in starts playing different tunes

     C                                   G  Bm7  Em  A
I'll see you on the dark side of the moon.

|-2----2----2----2----2----2----2----2--|
|-3-----3---------3---------3---------3-|
|-2--2---------2---------2---------2----|
|-0-0---------0---------0---------0-----|
|---------------------------------------|
|---------------------------------------|

|-2----2----2----2----2----2----2----2--|
|-3-----3---------3---------3---------3-|
|-2--2---------2---------2---------2----|
|-0-0---------0---------0---------0-----|
|---------------------------------------|
|---------------------------------------|

during singing:
Guitar 1:
|-------2----2----2----2----1----1----1----1--|
|-------------3---------3------0--0------0--0-|
|----------2---------2--------0---------0-----|
|---------0---------0-------------------------|
|---------------------------------------------|
|---------------------------------------------|

Guitar 2:
|--------------------------------19b20b19-----|
|-19b20b19------------------------------------|
|---------------------------------------------|
|---------------------------------------------|
|---------------------------------------------|
|---------------------------------------------|

Guitar 1:
|-------2----2----2----2----1----1----1----1--|
|-------------3---------3------0--0------0--0-|
|----------2---------2--------0---------0-----|
|---------0---------0-------------------------|
|---------------------------------------------|
|---------------------------------------------|

Guitar 2:
|--------------------------------19b20b19-----|
|-19b20b19------------------------------------|
|---------------------------------------------|
|---------------------------------------------|
|---------------------------------------------|
|---------------------------------------------|

Guitar 1:
|-------2----2----2----2-----------------------3----3--3----3--|
|-------------3---------3---9----9----9----9-------------------|
|----------2---------2------------9---------9--------0-------0-|
|---------0---------0----------9---------9--------2-------2----|
|-----------------------------7---------7--------0-------0-----|
|--------------------------------------------------------------|

Guitar 2:
|---------------------16b17b16----------------|
|---------------------------------------------|
|---------------------------------------------|
|---------------------------------------------|
|---------------------------------------------|
|---------------------------------------------|

Guitar 1:
|-2-------2---0-------0-----2-----2-0-|
|-3---3-----------3-----3---1---1-----|
|-2-----------------2-------2-2-------|
|-0-0---0---0---0---0-------0---------|
|-------------------------0-----------|
|-------------------------------------|


G A C A7
Bm7 Em7 Em
Rate this tab: 1 Star2 Stars3 Stars4 Stars5 Stars (1 votes, average: 3.00 out of 5)
Lyrics for This Tab: Brain Damage Lyrics by Pink Floyd

Talk about Brain Damage Guitar Tab

1 Comment on This Tab

  1. You’ve reached the bottom of the tab, where is ECLIPSE?

    It’s right here: http://www.pinkfloydtabs.com/eclipse-guitar-chords :)

Comment on This Tab

Brain Damage Related Tabs