Pink Floyd Guitar Tabs and More @ PinkFloydTabs.com

Echoes Tab


Available Video Lesson


Echoes Backing Track:

Audio clip: Adobe Flash Player (version 9 or above) is required to play this audio clip. Download the latest version here. You also need to have JavaScript enabled in your browser.

Echoes Backing Track (ver 2):

Audio clip: Adobe Flash Player (version 9 or above) is required to play this audio clip. Download the latest version here. You also need to have JavaScript enabled in your browser.

Echoes Backing Track (ver 3):

Audio clip: Adobe Flash Player (version 9 or above) is required to play this audio clip. Download the latest version here. You also need to have JavaScript enabled in your browser.


Echoes Tab - Pink Floyd

Intro :
--12(14)--12(14)---------------------|
------------------12(14)--12-12(14)--|
-------------------------------------|
-------------------------------------|
-------------------------------------|
-------------------------------------|

--12(14)--12-9-12(14)--12----------------------------------|
--------------------------12-12(14)--12--------------------|
----------------------------------------11(13)11p9-11(13)--|
-----------------------------------------------------------|
-----------------------------------------------------------|
-----------------------------------------------------------|

------------------------------------------------------------------------|
------------------------------------------------------------------------|
--11(13)11p9------------------------9-9h11-11(13)p9-11-11(13)p9-11(13)--|
-------------11-9--------------9-11-------------------------------------|
------------------11-12-----12------------------------------------------|
------------------------------------------------------------------------|

---------------12(14)--11(13)-11(13)11------------------------|
----9-12(14)---------------------------(14)13-----------------|
--9------------------------------------------13---------------|
-----------------------------------------------13\11-10---11--|
--------------------------------------------------------11----|
--------------------------------------------------------------|

--------------------------------------------------|
--------------------------------------------------|
--------11(13)-11-9-11-11(13)~~---11-9\8----------|
--11-------------------------------------11-9-11--|
--------------------------------------------------|
--------------------------------------------------|

--------------9------------------------------------|
----------------9-12-12(14)-----10p9---------------|
-----9-11(13)-----------------------11-9-11/13\11--|
--11-----------------------------------------------|
---------------------------------------------------|
---------------------------------------------------|

----------------------------------------------------------|
---------------------------------12-12(14)---9-12-12(14)--|
--11(13)-9-11-11(13)-9----11(13)-----------9--------------|
-----------------------11---------------------------------|
----------------------------------------------------------|
----------------------------------------------------------|

--12(14)--11(13)-11(13)11-------------------------|
---------------------------(14)13-----------------|
---------------------------------13---------------|
-----------------------------------13\11-10---11--|
--------------------------------------------11----|
--------------------------------------------------|

C#m
Overhead the albatross
B
Hangs motionless upon the air
F#m
and deep beneath the rolling waves
G#
In labyrinth's of coral caves
C#m
The echo of a distant time
B
Comes willowing across the sand
F#m
And everything is green and
G#
Submarine.

C#
And no one showed us to the land
G#
And no one knows the where or whys
F#m
But something stirs and something tries
G#                               A
And starts to climb towards the light


Coda A
2 Times

-----------------------------------------------4-4-4--4--4--|
-----------------------------------------------5-5-5--5--5--|
-----------------------------------------------6-6-6--6--6--|
-----------------------1-2-1-2-4-6-4-6-7-6-----6-6-6--6--6--|
-4-3-2-1-0---0-2-4-2-4---------------------4---4-4-4--4--4--|
-----------4------------------------------------------------|

On third time                                           (con't)
----------------------------------------------0--------0----|
------------------------------------------------0--------0--|
------------------------------------------------------------|
-----------------------1-2-1-2-1-----------2--------2-------|
-4-3-2-1-0---0-2-4-2-4-----------4-3-2-0--------------------|
-----------4-----------------------------0--------0---------|
(continue here)
-----0-------0----|
---0---0---1---1--|
------------------|
------------------|
-2-------3--------|
------------------|

Repeat all above for next verse
After second verse and guitar chorus go right into solo


Solo

------------------------------------------------|
------------------------------------------------|
------------------------------------------------|
------------------------------------------------|
--4---4\2-------------2-4-3~--3 / 4-3-3-4-6-7~--|
----------4---2--4-5----------------------------|

----------------------------------------------------|
----------------------------------------------------|
---------9~-11-11(12)11(13)/ 19(21)--9~-------------|
--9~-11~--------------------------------11~-9~------|
-----------------------------------------------11~--|
----------------------------------------------------|

------9-11(13)-(13)11-11~--|
--/9~----------------------|
---------------------------|
---------------------------|
---------------------------|
---------------------------|

-------------------------------------------------|
-9----9-9h10p9----9-10-12-12(14)12-12(16)12-9~---|
---11----------11--------------------------------|
-------------------------------------------------|
-------------------------------------------------|
-------------------------------------------------|

---------------------------12-------|
--------9---------------12(14)(14)--|
------9---11(12)11(13)--------------|
--/11-------------------------------|
------------------------------------|
------------------------------------|

--12-12(14)12-12-12-11----------------------------------|
-----------------------12-12(14)12-12(14)(16)12-12(14)--|
--------------------------------------------------------|
--------------------------------------------------------|
--------------------------------------------------------|
--------------------------------------------------------|

--12p11----9-11-12-12/16-16-16-16/19-19-19-19/21-21-21-21-21(23)--|
--------12--------------------------------------------------------|
------------------------------------------------------------------|
------------------------------------------------------------------|
------------------------------------------------------------------|
------------------------------------------------------------------|

--21--21-21-18-17~--17\16--------16-17-17p16------------------|
--------------------------17~~~~-------------17~~~~16~~~~17~--|
-----------------------------16~----------------16~~~~/17~~~--|
--------------------------------------------------------------|
--------------------------------------------------------------|
--------------------------------------------------------------|

----x-4-4----------------------------|
----x-5-5--------------2-2-----------|
----x-6-6--------------2-2-----------|
----x-6-6--------------2-2-----------|
--4-x-4-4--4-3-2-1-0**-0-0-0-1-2-3---|
-------------------------------------|

On fourth time (Coda B)
------0-------0-------0-------0----|
--------0-------0---0---0---1---1--|
-----------------------------------|
----2-------2----------------------|
------------------2-------3--------|
--0-------0------------------------|

Now the 'jam' part
Rythym                            etc...
----------4-4-x-x---------4-4-x-x--|
--4-4-x-x-5-5-x-x-4-4-x-x-5-5-x-x--|
--4-4-x-x-6-6-x-x-4-4-x-x-6-6-x-x--|
--4-4-x-x-6-6-x-x-4-4-x-x-6-6-x-x--|
--2-2-x-x-4-4-x-x-2-2-x-x-4-4-x-x--|
-----------------------------------|

Lead Number 1
-----------------------------------------|
--12(13)12--12--12-12-11-----------------|
--12(13)12---------------11------x-9--6--|
--12(13)12------------------11---x-9--6--|
-----------------------------------------|
-----------------------------------------|

Lead Number 2
------------------------------------------------------------------------|
-12(13)12-12(13)12-12/17-17-17-17-16-----16h17p16-16-16-16-14-----------|
-12(13)12-12(13)12------------------16-----------------------14---x-9-6-|
-12(13)12-12(13)12--------------------16-----------------------14-x-9-6-|
------------------------------------------------------------------------|
------------------------------------------------------------------------|

Lead Number 3
-----16--------16-----18--------18--------16---------16-16--/9~~--|
--/17--17--------17/19--19--------19-19\17--17-------17-17--/9~~--|
---------16****-----------18****--------------16****-16-16--/9~~--|
------------------------------------------------------------/9~~--|
------------------------------------------------------------------|
------------------------------------------------------------------|


| /  slide up
| \  slide down
| h  hammer-on
| p  pull-off
| ~  vibrato
| +  harmonic
| x  Mute note
Rate this tab: 1 Star2 Stars3 Stars4 Stars5 Stars (9 votes, average: 3.67 out of 5)
Tab filed under: Meddle, Guitar Tabs
Lyrics for This Tab: Echoes Lyrics by Pink Floyd

Talk about Echoes Guitar Tab

1 Comment on This Tab

  1. where is the tab of the second part?

Comment on This Tab

Echoes Related Posts