Pink Floyd Guitar Tabs and More @ PinkFloydTabs.com

Empty Spaces Tab

Empty Spaces Tab - Pink Floyd

#>#        = quick slide
#->#       = late slide (hold note a bit, then slide)
#--->#     = later slide (hold note longer, then slide)
#----->#   = latest slide (hold note longest, then slide)
#~~~~      = vibrato 

Rule of thumb: This is more of a guideline, listen to the song and
you’ll get it easily. (You’ll know how long to hold all of the other
notes better too)

Intro (listen to song for vibrato’s)

E ||------------------------------------------------------------------|
B ||-5-----7-----8-----7-----7>8-7--3--5--->3->5----->3>5-------------|
G ||------------------------------------------------------------------|
D ||------------------------------------------------------------------|
A ||------------------------------------------------------------------|
E ||------------------------------------------------------------------|

    It gets a bit louder here
E ||------------------------------------------------------------------|
B ||-5-----7-----5>7-8------7-----7>8--7--3>0—5-----------------------|
G ||------------------------------------------------------------------|
D ||------------------------------------------------------------------|
A ||------------------------------------------------------------------|
E ||------------------------------------------------------------------|

Middle

    This is the loudest part (most intense)
E ||-19~~~~-19>17-19~~~~-19-19----------------------------17-17-19~~~~|
B ||----------------------------19~~~~-17------19~~~~-19--------------|
G ||---------------------------------------18-------------------------|
D ||------------------------------------------------------------------|
A ||------------------------------------------------------------------|
E ||------------------------------------------------------------------|	

E ||-19>17-19~~~~-19>17-----------------------------------------------|
B ||---------------------19~~~~-17------19~~~~-17~~~~-19>20-19~~~~----|
G ||--------------------------------18--------------------------------|
D ||------------------------------------------------------------------|
A ||------------------------------------------------------------------|
E ||------------------------------------------------------------------|

E ||---------17~~~~-17>19-19~~~~~~~~-17>19-19~~~~~~~~-----------------|
B ||-20~~~~-----------------------------------------------------------|
G ||------------------------------------------------------------------|
D ||------------------------------------------------------------------|
A ||------------------------------------------------------------------|
E ||------------------------------------------------------------------|

End

This part is really easy, and on high distortion (try power chords if you want too)

    Play riff 3x
E ||--------------------------------|
B ||--------------------------------|
G ||--------------------------------|
D ||--------------------------------|
A ||--------------------------------|
E ||-0-----2-----3-----2-----2>3-2--|

    On the 4th and last time, play this
E ||---------------------------------|
B ||---------------------------------|
G ||---------------------------------|
D ||---------------------------------|
A ||---------------------------------|
E ||-0-----2-----3-----2-------------|
Rate this tab: 1 Star2 Stars3 Stars4 Stars5 Stars
Tab filed under: The Wall, Guitar Tabs
Lyrics for This Tab: Empty Spaces Lyrics by Pink Floyd

Talk about Empty Spaces Guitar Tab

Comment on This Tab

Empty Spaces Related Tabs