- Pink Floyd Tabbs - http://pinkfloydtabs.com -

Green is the Colour Guitar Chords

Green is the Colour Tab - Pink Floyd 

INTRO:
G  C  G  C  G  Bm  C  Em   D 

G                        C       
Heavy hung the canopy of blue
G                        C 
Shade my eyes and I can see you
G               Bm       C                Em           D 
White is the light that shines through the dress that you wore

G                        C 
She lay in the shadow of the wave
G                        C
Hazy were the visions of her playing
G               Bm       C                 Em          D 
Sunlight on her eyes but moonshine made her blind every time

G                        C          
Green is the colour of her kind
G                        C
Quickness of the eye deceives the mind
G           Bm               C               Em     D  
Many is the bond between the hopeful and the dying

      
G  C  G  C  G  C  D   ( repeat until end )
3 Comments (Open | Close)

3 Comments To "Green is the Colour Guitar Chords"

#1 Comment By My name On April 18, 2012 @ 4:37 pm

Anyone having the tab of the little intro played by Gilmour?

#2 Comment By admin On April 24, 2012 @ 9:58 am

I think it’s something like this:

-------3-3-3------3-3-3-------0-0-0-------0-0--0-----
-------3-3-3------3-3-3-------1-1-1-------1-1--1-----
-------0-0--------0-0---------0-0---------0-0--------
--0-----------------------2----------2---------------
--2-----------2-----------3----------3---------------
--3-----------3--------------------------------------

-----3-3-3----3-3-3-----0-0-0------0-0-0-------------
-----3-3-3----3-3-3-----1-1-1------0-0-0-------------
-----0-0------0-0-------0-0--------0-0---------------
---------------------2---------2---------------------
--2--------2---------3---------2---------------------
--3--------3-----------------------------------------

Try adding some hammer on’s, pick off’s and slides in there.

#3 Comment By pink numb On September 16, 2014 @ 11:03 am

The intro is like this

slide hammer hammer
-------------------------------------------------------------------------------------------2----4----2-----0---2---0---------------------------------2--------------2---0--0---2----------------------------------------------------------------------------------------
hammer slide hammer slide hammer
----------------------------------3-3---5-3---------------3--3---5--3--3---5-------------0---2--2---4-------------------------------------------------------------------------------------------------------------------------------------------------------------------

---------------------------------------------5--3---3--5--3----------------------------------------------4--2-----2-----0-----------------------------------2----2------------------------------------------------------------------------------------------------------

is very easy and sounds good”