Pink Floyd Guitar Tabs and More @ PinkFloydTabs.com

Is There Anybody Out There Tab

Available Video Lesson


Is There Anybody Out There Tab - Pink Floyd

   No Chord
e------------
B------------
G------2-----  (x8)
D------------
A---0--------
E------------

    Am	        Am/F	 Am/F#	           Am/F
e---------0---------------0----------------0----------------0----------
B-------1---1------------1---1-----------1---1------------1---1--------
G-----2------2---2-----2-------2---2----2------2---2-----2-------2---2-
D---2----------2-----3-----------3----4----------4-----3-----------3---
A----------------------------------------------------------------------
E----------------------------------------------------------------------

   Am	     Am/D      Am/C    Am/B      Am	    
e--------0--------0--------0-------0----------0------------------------
B------1--------1--------1-------1----------1---1----------------1-----
G----2--------2--------2-------2----------2-------2------------2---2---
D--2--------0---------------------------2-----------2----2---2-------2-
A--------------------3-------2--------0----------------0---0-----------
E----------------------------------------------------------------------


e-----------0------------------------
B---------1---1----------------1-----
G-------2-------2------------2---2---
D-----2-----------2----2---2---------
A---0----------------0---0-----------
E------------------------------------

        Am/F	         Am/F#             Am/F
e---------0----------------0----------------0----------------0---------
B-------1---1------------1---1------------1---1------------1---1-------
G-----2------2---2-----2-------2---2----2------2---2-----2-------2---2-
D---2----------2-----3-----------3----4----------4-----3-----------3---
A----------------------------------------------------------------------
E----------------------------------------------------------------------

   F        Am/D                  N.C.  Am
e-----------------0--------0------------------0-------
B------1--------1--------1---1--------------1---1-----
G----2--------2--------2-------2----------2-------2---
D--3------2-0--------0------------------2-----------2-
A--------------------------------3-2--0---------------
E-----------------------------------------------------
 
e----------------------------0---------------------0--
B-------------1------------1---1----------------1-----
G-----------2---2--------2-------2------------2-------
D-----2---2-------2----2-----------2----2---2---------
A---0---0------------0----------------0---0-----------
E-----------------------------------------------------

   C                  G/B               Am
e----------0-------------------0--------------0------------------------
B--------1---1-------------1-3---3-1--------0---0--------5--3-1-1-0-0--
G------0-------0---------0----------------2-------2/--/5--4-----------0
D----2-----------2-----0----------------2------------------------------
A--3-----------------2----------------0--------------------------------
E----------------------------------------------------------------------

   C	               G/B	  Am                N.C.
e----------0-------------------0--------------0------------8------7----
B--------1---1-------------1-3---3-1--------0---0----------------------
G------0-------0---------0----------------2-------2------9------7------
D----2-----------2-----0----------------2------------------------------
A--3-----------------2----------------0--------------------------------
E----------------------------------------------------------------------

   Am                 Am/F	         Am/F#	           Am/F
e---------0---------------0-----------------0---------------0----------
B-------1---1------------1---1------------1---1-----------1---1--------
G-----2------2---2-----2-------2---2-----2------2---2----2-------2---2-
D---2----------2-----3-----------3-----4----------4----3-----------3---
A----------------------------------------------------------------------
E----------------------------------------------------------------------

   Am       Am/D      Am/C     Am/B     Am	 	      u.
e--------0--------0--------0-------0-------------------5-7-8------12---
B------1--------1--------1-------1----------1----1/5--------------10---
G----2--------2--------2-------2----------2-----------------------9----
D--2--------0---------------------------2-------------------------10---
A--------------------3-------2--------0---------------------------0----
E----------------------------------------------------------------------
Rate this tab: 1 Star2 Stars3 Stars4 Stars5 Stars (9 votes, average: 4.33 out of 5)
Tab filed under: The Wall, Guitar Tabs
Lyrics for This Tab: Is There Anybody Out There Lyrics by Pink Floyd

Talk about Is There Anybody Out There Guitar Tab

3 Comments on This Tab

  1. I think this version is not correct!

  2. E |----------|
    B |----------|
    G |----2---2-|
    D |----------|
    A |--0---0---|
    E |----------| X8

    E |-------0---------|-------0---------|-------0---------|
    B |-----1---1-------|-----1---1-------|-----1---1-------|
    G |---2-------2---2-|---2-------2---2-|---2-------2---2-|
    D |-2-----------2---|-3-----------3---|-4-----------4---|
    A |-----------------|-----------------|-----------------|
    E |-----------------|-----------------|-----------------|

    -------0---------|
    -----1---1-------|
    ---2-------2---2-|
    -3-----------3---|
    -----------------|
    -----------------|

    E |-------0-------0-|-------0-------0-|---------0-------|
    B |-----1-------1---|-----1-------1---|-------1---1-----|
    G |---2-------2-----|---2-------2-----|-----2-------2---|
    D |-2-------0-------|-----------------|---2-----------2-|
    A |-----------------|-3-------2-------|-0---------------|
    E |-----------------|-----------------|-----------------|

    -----------------|---------0-------|-----------0-----|
    -------1---------|-------1---1-----|-------1---------|
    -----2---2-------|-----2-------2---|-----2-----------|
    ---2-------2---2-|---2-----------2-|---2-------------|
    -0-----------0---|-0---------------|-0---------------|
    -----------------|-----------------|-----------------|

    E |-------0---------|-------0---------|-------0---------|
    B |-----1---1-------|-----1---1-------|-----1---1-------|
    G |---2-------2---2-|---2-------2---2-|---2-------2---2-|
    D |-2-----------2---|-3-----------3---|-4-----------4---|
    A |-----------------|-----------------|-----------------|
    E |-----------------|-----------------|-----------------|

    -------0---------|---------------0-|-------0---------|
    -----1---1-------|-----1-------1---|-----1---1-------|
    ---2-------2---2-|---2-------2-----|---2-------2-----|
    -3-----------3---|-3-----2-0-------|-0---------------|
    -----------------|-----------------|-------------3-2-|
    -----------------|-----------------|-----------------|

    E |---------0-------|-----------------|
    B |-------1---1-----|-------1---------|
    G |-----2-------2---|-----2---2-------|
    D |---2-----------2-|---2-------2---2-|
    A |-0---------------|-0-----------0---|
    E |-----------------|-----------------|

    ---------0-------|---------0-------|
    -------1---1-----|-------1---------|
    -----2-------2---|-----2-----------|
    ---2-----------2-|---2-------------|
    -0---------------|-0---------------|
    -----------------|-----------------|

    E |---------0-------|-----------0-----|
    B |-------1---1-----|-------1-3---3---|
    G |-----0-------0---|-----0---------0-|
    D |---2-----------2-|---0-------------|
    A |-3---------------|-2---------------|
    E |-----------------|-----------------|

    ---------0-----|-------------------|
    -------0---1---|---8----7----5----3|
    -----2-------2-|-------------------|
    ---2-----------|-9----7----5----4--|
    -0-------------|-------------------|
    ---------------|-------------------|

    E |---------0-------|-----------0-----|
    B |-------1---1-----|-------1-3---3---|
    G |-----0-------0---|-----0---------0-|
    D |---2-----------2-|---0-------------|
    A |-3---------------|-2---------------|
    E |-----------------|-----------------|

    ---------0-----|---8--------7------|
    -------0---1---|-------------------|
    -----2-------2-|/9------/7---------|
    ---2-----------|-------------------|
    -0-------------|-------------------|
    ---------------|-------------------|

    E |-------0---------|-------0---------|
    B |-----1---1-------|-----1---1-------|
    G |---2-------2---2-|---2-------2---2-|
    D |-2-----------2---|-3-----------3---|
    A |-----------------|-----------------|
    E |-----------------|-----------------|

    -------0---------|-------0---------|
    -----1---1-------|-----1---1-------|
    ---2-------2---2-|---2-------2---2-|
    -4-----------4---|-3-----------3---|
    -----------------|-----------------|
    -----------------|-----------------|

    E |-------0-------0-|-------0-------0-|-----------5-7-8-|-^12--*|
    B |-----1-------1---|-----1-------1---|-------1/5-------|-^10--*|
    G |---2-------2-----|---2-------2-----|-----2-----------|-^-9--*|
    D |-2-------0-------|-----------------|---2-------------|-^10--*|
    A |-----------------|-3-------2-------|-0---------------|-^-0--*|
    E |-----------------|-----------------|-----------------|------*|

  3. the version of ognyan is correct

Comment on This Tab

Is There Anybody Out There Related Tabs