Pink Floyd Guitar Tabs and More @ PinkFloydTabs.com

Let There Be More Light Tab

Let There Be More Light Tab - Pink Floyd

Intro
|-------------------------|---------------------------------------------|
|-------------------------|---------------------------------------------|
|-------------------------|---------------------------------------------|
|--5---3---5---3---5------|---5---3---2---3---2---5---3---5---3---5-----|
|--------------------(x8)-|-----------------------------------------(x2)|
|3---3---3---3---3--------|-3---3---3---3---3---3---3---3---3---3-------|

|-------------------------|---------------------------------------------|
|-------------------------|---------------------------------------------|
|-------------------------|---------------------------------------------|
|--5---3---5---3---5------|---5---3---2---1---0---5---3---5---3---5-----|
|--------------------(x2)-|-----------------------------------------(x2)|
|3---3---3---3---3--------|-3---3---3---3---3---3---3---3---3---3-------|

|-----------------------------------------
|-----------------------------------------
|-----------------------------------------
|---5---3---2---3---2---5---3---5---3---5-
|-----------------------------------------
|-3---3---3---3---3---3---3---3---3---3---

----------------------------------------|
----------------------------------------|
----------------------------------------|
--5---6---5---3---5---5---3---5---3---5-|
----------------------------------------|
3---3---3---3---3---3---3---3---3---3---|

|----------------------------------------
|----------------------------------------
|----------------------------------------
|---5---3---2---1---0---5---3---2---3---2
|----------------------------------------
|-3---3---3---3---3---3---3---3---3---3--

-----------------------------------------|
-----------------------------------------|
-----------------------------------------|
---5---3---2---3---2---5---3---2---1---0-|
-----------------------------------------|
-3---3---3---3---3---3---3---3---3---3---|

|-----------------------------------------
|-----------------------------------------
|-----------------------------------------
|---5---3---5---3---5---5---6---5---3---5-
|-----------------------------------------
|-3---3---3---3---3---3---3---3---3---3---

|--------------------------|
|--------------------------|
|--------------------------|
|---5---3---5---3---5------|
|---------------------(x2)-|
|-3---3---3---3---3--------|

|---------------------|
|---------------------|
|---------------------|
|---5---6---5---3---5-|
|---------------------|
|-3---3---3---3---3---|

Preverse
|----------------------|
|----------------------|
|----------------------|
|-5--5--5h6p5---3-(x4)-|
|-------------5--------|
|----------------------|

Verse #1
|----------------------|-----------------|
|----------------------|-----------------|
|----------------------|-----------------|
|-5--5--5h6p5---3-(x5)-|-4h5p4h5p4h5p4h5-|
|-------------5--------|-----------------|
|----------------------|-----------------|

Chorus #1
|----------------------5-5-3-----------------------------|
|----3-----------------------5-3-0-5-5-5-3-----------2-4-|
|------5--------2-2-4-----------------------3-3-3-5------|
|-5---------5-5-0-0-2------------------------------------|
|-3---------3-3------------------------------------------|
|--------------------------------------------------------|

Verses #2
|----------------------|-----------------|
|----------------------|-----------------|
|----------------------|-----------------|
|-5--5--5h6p5---3-(x3)-|-4h5p4h5p4h5p4h5-|
|-------------5--------|-----------------|
|----------------------|-----------------|

Chorus #2
|----------------------5-5-3-----------------------------|
|----3-----------------------5-3-0-5-5-5-3-----------2-4-|
|------5--------2-2-4-----------------------3-3-3-5------|
|-5---------5-5-0-0-2------------------------------------|
|-3---------3-3------------------------------------------|
|--------------------------------------------------------|

Verses #3
|----------------------|-----------------|
|----------------------|-----------------|
|----------------------|-----------------|
|-5--5--5h6p5---3-(x3)-|-4h5p4h5p4h5p4h5-|
|-------------5--------|-----------------|
|----------------------|-----------------|

Chorus #3
|----------------------5-5-3-----------------------------|
|----3-----------------------5-3-0-5-5-5-3-----------2-4-|
|------5--------2-2-4-----------------------3-3-3-5------|
|-5---------5-5-0-0-2------------------------------------|
|-3---------3-3------------------------------------------|
|--------------------------------------------------------|

Verse #4
|-------------------------------------------------------------------|
|-------------------------------------------------------------------|
|-------------------------------------------------------------------|
|-5--5--5h6p5---3-5--5---5h6p5---3-5-3-5--5h6p5---3-4h5p4h5p4h5p4h5-|
|-------------5----------------5----------------5-------------------|
|----------------------3--------------------------------------------|

Chorus #4
|-------8-6--------------------5-3-5-5-3-----------5-3--5-3-----------|
|-----------9-8-6------------------------3-5-3-5-3--------------------|
|-----------------8-5---2-2-4--------------------------------6--5-3-0-|
|-5-------------------5-0-0-2-----------------------------------------|
|-3-------------------3-----------------------------------------------|
|---------------------------------------------------------------------|

Solo
|---------12-12-10------------------------------------------------------|
|10-10-------------12h13p12-12-10h12------------------------------------|
|------12----------------------------12-12-12-12-10-12--12b-12--------12|
|---------------------------------------------------------------12-12---|
|-----------------------------------------------------------------------|
|-----------------------------------------------------------------------|

|-----------10---13-12-13--15-13-15--17-15-
|-11-13-13---------------------------------
|------------------------------------------
|------------------------------------------
|------------------------------------------
|------------------------------------------

--10--11-10-----10------------------|
------------13----------------------|
---------------------12---12\-5h6-7-|
------------------------------------|
------------------------------------|
------------------------------------|

|------------5------7-7-8p7----8h10--
|-6-5-6--8-6----8-----------10-------
|------------------------------------
|------------------------------------
|------------------------------------
|------------------------------------

12h13-12h13-12h13--13-12-10---------------|
-----------------------------13-12-10--12-|
------------------------------------------|
------------------------------------------|
------------------------------------------|
------------------------------------------|

|----------------13-12-13--15--13--12--13-
|-----------------------------------------
|-12h14p12--12----------------------------
|-----------------------------------------
|-----------------------------------------
|-----------------------------------------

--10-12-------10-----------------|
--------12h13----12-12h13-----12-|
--------------------------12-----|
---------------------------------|
---------------------------------|
---------------------------------|

|---------------------------------------
|---------------------------------------
|-12h14p12------------------------------
|----------15--14h15p14-14-14p12--------
|--------------------------------13-14--
|---------------------------------------

-------------------------------------------|
----------------------------------10-10----|
----------------------------------------12-|
------------------12--14--14h15------------|
-12h14--12h14h15---------------------------|
-------------------------------------------|

|-15-17-15--15-22-15-----------------
|-----------------------11-12-13--11-
|------------------------------------
|------------------------------------
|------------------------------------
|------------------------------------

------------10---10-12-12-10-12-12-10-12h13-|
--12-12h13----------------------------------|
--------------------------------------------|
--------------------------------------------|
--------------------------------------------|
--------------------------------------------|

|-13p12-13p12-10--12-10-12-10-12h13-13p12-13h15--15-13-12h13p12-10-|
|------------------------------------------------------------------|
|------------------------------------------------------------------|
|------------------------------------------------------------------|
|------------------------------------------------------------------|
|------------------------------------------------------------------|

|---------------------------15-13-12h13p12-10--------------------------|
|----------12h13p12-13h15---------------------12-12-13-12-10--12-10----|
|-12h13p12----------------------------------------------------------12-|
|----------------------------------------------------------------------|
|----------------------------------------------------------------------|
|----------------------------------------------------------------------|

|-----------------------------------------------------------------------|
|------------------------------------------------------11-13--14b-11----|
|-10-12-10p9h10-----------------12-----12----12-14b-12---------------12-|
|----------------12-14-14-12-14----15-----15----------------------------|
|-----------------------------------------------------------------------|
|-----------------------------------------------------------------------|

|-----------------------------------------------------|
|-----------------------------------------------------|
|-------10----10--14b-12----------10----10--14b-14-12-|
|-11h12----12--------------11h12-----12---------------|
|-----------------------------------------------------|
|-----------------------------------------------------|

There's a few more notes I didn't get, but they are too hard to hear. Anyway, enjoy.
Rate this tab: 1 Star2 Stars3 Stars4 Stars5 Stars (1 votes, average: 5.00 out of 5)
Lyrics for This Tab: Let There Be More Light Lyrics by Pink Floyd

Talk about Let There Be More Light Guitar Tab

Comment on This Tab

Let There Be More Light Related Tabs