Pink Floyd Guitar Tabs and More @ PinkFloydTabs.com

Marooned Tab

Marooned Backing Track:

Audio clip: Adobe Flash Player (version 9 or above) is required to play this audio clip. Download the latest version here. You also need to have JavaScript enabled in your browser.


Marooned Tab - Pink Floyd

This song is played with a whammy pedal set at one octave higher.  The // symbol 
means pedal is pressed down and is not released until the symbol \\ appears.

e|--14-17/19---17\-/14---------------- 
B|------------------------15-17-b--15-
G|---------------------16-------------
D|------------------------------------
A|------------------------------------
E|------------------------------------

------------//--0-22-22-22-22-22---------|
17---17/14--//---------------------------|
------------//---------------------------|
------------//---------------------------|
------------//---------------------------|
------------//---------------------------|

e|-------------------14-------9---9b--
B|--/12-12-15-12-15b----15b----7------
G|------------------------------------
D|------------------------------------
A|------------------------------------
E|------------------------------------

9----------------------------------------|
---10p7-------------------10-------------|
--------9b---9p7-9p7—9b-------9b-9-9-----|
-----------------------------------------|
-----------------------------------------|
-----------------------------------------|

e|--\\--------------------------------
B|--\\------12-15-15b---15-15-17p15-17
G|--\\--9-----------------------------
D|--\\--------------------------------
A|--\\--------------------------------
E|--\\--------------------------------

-------------------------------------/19-|
b—-17b-17rb-15----17----15-17-17b-15-----|
---------------16----16------------------|
-----------------------------------------|
-----------------------------------------|
-----------------------------------------|

e|--19-19-19-19-20b-19-20b-20-20b-20rb
B|------------------------------------
G|------------------------------------
D|------------------------------------
A|------------------------------------
E|------------------------------------

-19-//-—17/19-19-19-17-14-----14---------|
----//---------------------17----15-14---|
----//-----------------------------------|
----//-----------------------------------|
----//-----------------------------------|
----//-----------------------------------|

e|------------------------------------
B|------------------------------------
G|-16----------14—16-—14b—14p11-------
D|---16--------------------------14/16
A|------------------------------------
E|------------------------------------

-----------------------------------------|
-----------------------------------------|
--------------------------14-------------|
--12----14-b-12-14—-14/16----14----------|
-----14----------------------------------|
-----------------------------------------|

rake
e|------------------------------------
B|----12-14-15-14-15-17-15-17-18-19--1
G|--11--------------------------------
D|------------------------------------
A|------------------------------------
E|------------------------------------

-------------17-17-17/19--\\-------------|
9-19b-17-19---------------\\-------------|
--------------------------\\-------------|
--------------------------\\-------------|
--------------------------\\-------------|
--------------------------\\-------------|

e|------14-----14--------------12-----
B|--15b----15b------15-12--15-----15/1
G|-----------------------14-----------
D|------------------------------------
A|------------------------------------
E|------------------------------------

------------7----10-7----7---------------|
7------5/7----7-------10---7-10----------|
---------------------------------9b------|
-----------------------------------------|
-----------------------------------------|
-----------------------------------------|

e|--17~-------------------------------
B|--19~—--17b-17b-17b-----------------
G|---------------------16-18p16-19p18-
D|------------------------------------
A|------------------------------------
E|------------------------------------

-----------------------------------------|
19--------17---17--19-----17-19----17-19-|
----16-18b--18--------19b-------19B------|
-----------------------------------------|
-----------------------------------------|
-----------------------------------------|

e|------------------------------------
B|-----17-19—19b-17-19\--19-19b-17-19-
G|--19b-------------------------------
D|------------------------------------
A|------------------------------------
E|------------------------------------

-//-------------19-19-19----19-17-17-17--|
-//--19-17-19----------------------------|
-//--------------------------------------|
-//--------------------------------------|
-//--------------------------------------|
-//--------------------------------------|

e|--14-12-12-12-----------------------
B|---------------15-14-14-14--12-10-12
G|------------------------------------
D|------------------------------------
A|------------------------------------
E|------------------------------------

-----------------------------------------|
—--12b-10-12--12-15-14-15-15b—-rb15------|
-----------------------------------------|
-----------------------------------------|
-----------------------------------------|
-----------------------------------------|

e|------------------------------------
B|--15p14p12--14-15—-15p14p12---------
G|----------------------------14-14b--
D|------------------------------------
A|------------------------------------
E|------------------------------------

-----------------------------------------|
-------------------------------15b-------|
-14b-14b-p11—-14b-p11—-14b-p11-----------|
-----------------------------------------|
-----------------------------------------|
-----------------------------------------|

e|------------------------------------
B|--15-14-15--17-19----12-12-15-14-15p
G|------------------------------------
D|------------------------------------
A|------------------------------------
E|------------------------------------

--------\\-------------------------------|
14p-12--\\--12h15p12h15p12h15p12h15—17b--|
--------\\-------------------------------|
--------\\-------------------------------|
--------\\-------------------------------|
--------\\-------------------------------|

e|------------12----------------------
B|--12-15-15b------15p12-17b--12-15-15
G|------------------------------------
D|------------------------------------
A|------------------------------------
E|------------------------------------

-----------------------------------------|
b---15-14-12-15---12-----12--------------|
---------------------14b-----14b-14------|
-----------------------------------------|
-----------------------------------------|
-----------------------------------------|

** Keep hitting those notes while pres
sing the whammy pedal up and down

e|-------7----------//------\\--------
B|--/7-7---10p7-10--//--10--\\----10--
G|------------------//------\\--11----
D|------------------//------\\--------
A|------------------//------\\--------
E|------------------//------\\--------

//---------------------------------------|
//--12—--15p12—-15p12--/17-15--14-14-14--|
//---------------------------------------|
//---------------------------------------|
//---------------------------------------|
//---------------------------------------|

e|----------------------------------7-
B|--12-12-12---/10-10-10---7-7-7-10---
G|------------------------------------
D|------------------------------------
A|------------------------------------
E|------------------------------------

-----------------------------------------|
7-10----------------------------10-------|
-----9b-9rb--7-6------------x------9-----|
-----------------9-7---7-----------------|
---------------------9-------------------|
-----------------------------------------|

e|------------------------------------
B|--7-10-/12---12-12-/14---12-14-15-14
G|------------------------------------
D|------------------------------------
A|------------------------------------
E|------------------------------------

-----------------------------------------|
-15-/17---15-17-/19---17b-17-------------|
-----------------------------------------|
-----------------------------------------|
-----------------------------------------|
-----------------------------------------|

e|-----------------------------\\-----
B|--15-15-14-------------------\\-----
G|-----------14----16--14—14\--\\--11-
D|--------------16-------------\\-----
A|-----------------------------\\-----
E|-----------------------------\\-----

-----------------------------------------|
-----------------------------------------|
-----7-9b-p7-9----pb9-p7---7-9-----------|
--/9---------------------9---------------|
-----------------------------------------|
-----------------------------------------|

e|----------------10-12----12---12/14-
B|--/7-10—12p10-----------------------
G|-------------11-------11------------
D|------------------------------------
A|------------------------------------
E|------------------------------------

14--14/17--\\--17--14---12-14-12/14------|
-----------\\----------------------------|
-----------\\----------------------------|
-----------\\----------------------------|
-----------\\----------------------------|
-----------\\----------------------------|

e|--12-10-------------------------\\--
B|--------14b-12------------------\\--
G|---------------14-------7-9b-p7-\\--
D|---------------------/9---------\\--
A|--------------------------------\\--
E|--------------------------------\\--

----------7—-9-9b-10--12-12--------------|
---------7-------------------------------|
-------7---------------------------------|
9----------------------------------------|
-----------------------------------------|
-----------------------------------------|

e|---------------------------------14-
B|--15-14-15-12-14--------------------
G|-----------------14/16----/16-16----
D|------------------------------------
A|------------------------------------
E|------------------------------------

 -------17--//---------14--14-------17-17-|
-----------//----------------------------|
16-16------//---16-16--------16-16-------|
-----------//----------------------------|
-----------//----------------------------|
-----------//----------------------------|

e|--------14-14--\\--------17-17------
B|---------------\\-------------------
G|--16-16--------\\--16-16-------16-16
D|---------------\\-------------------
A|---------------\\-------------------
E|---------------\\-------------------

-14--//----17-17-------14---12-14--------|
-----//---------------------------12—-12-|
-----//-16--------------------------14---|
-----//----------16-16-------------------|
-----//----------------------------------|
-----//----------------------------------|


 // whammy pedal pressed down
 \\ whammy pedal up
 b  bend
 rb release bend
 h  hammer-on
 p  pull-off
 ~  vibrato
 x  Mute note
 /  slide up
 \  slide down
Rate this tab: 1 Star2 Stars3 Stars4 Stars5 Stars (2 votes, average: 5.00 out of 5)
Tab filed under: The Division Bell, Guitar Tabs
Lyrics for This Tab: Marooned Lyrics by Pink Floyd

Talk about Marooned Guitar Tab

Comment on This Tab

Marooned Related Tabs