Pink Floyd Guitar Tabs and More @ PinkFloydTabs.com

Money Tab

Available Video Lesson

Money Backing Track:

Audio clip: Adobe Flash Player (version 9 or above) is required to play this audio clip. Download the latest version here. You also need to have JavaScript enabled in your browser.

Money Backing Track (ver 2):

Audio clip: Adobe Flash Player (version 9 or above) is required to play this audio clip. Download the latest version here. You also need to have JavaScript enabled in your browser.


Money Tab - Pink Floyd

MAIN RIFF:
e-----------------------------------------
B-----------------------------------------
G--------4--------------------------------
D-----------4-----------------------------
A---2----------2---------------2--0--5b---
E---------------------2---5b--------------

VERSE:
Bm7
Money, get away.
Get a good job with more pay and you're okay.
Money, it's a gas.
Grab that cash with both hands and make a stash.

   F#m7
e------------------------------------------------------
B------------------------------------------------------
G------------------------------------------------------
D----4----4----4----------------------------4----3b----
A-------------------4------------------4---------------
E------------------------2------5b---------------------
    New  car,  cav - i - ar,    four  star  day - dream,
   
   Em                                 Bm7
e------------------------------------------------------------------------
B------------------------------------------------------------------------
G-----------------------------------------4------------------------------
D----2----------------------------------------4--------------------------
A--------------------0----2--0--5-----2-----------2-------------2----5b--
E---------0----3b--------------------------------------2---5b------------
   think I'll be me a foot - ball____________team.


Bm7
Money, get back.
I'm all right Jack keep your hands off of my stack.
Money, it's a hit.
Don't give me that do goody good bullshit.

          F#m7                                 Em
I'm in the high-fidelity first class travelling set
                        Bm7
And I think I need a Lear jet.

SAX SOLO: [See here]

GUITAR SOLO:

e|-----------------|
b|-----------------|
g|-4-4-4-4-4-4-----| X4
d|-4-4-4-4-4-4-----|
a|-2-2-2-2-2-2-----|
E|-----------------|

e|--------------------------------10----------------12sb-------|
b|---------10sb----7-10--------12----12-12----12-12------12-12-|
g|-9b-7~----------------9b-7~----------------------------------|
d|-------------------------------------------------------------|
a|-------------------------------------------------------------|
E|-------------------------------------------------------------|

e|------------------7------------10-12-12b-------12-|
b|--------------------7-10-10/12-----------12-12----|
g|-9b-7-9p7------9b---------------------------------|
d|----------9~--------------------------------------|
a|--------------------------------------------------|
E|--------------------------------------------------|

e|-12b~---10-12-------------------------------------------|
b|--------------12-10-------------------------------------|
g|--------------------9-7------------------------7-7------|
d|------------------------9-7-----------7--9-7-------9b---|
a|----------------------------7-5---7-9--------9----------|
E|--------------------------------7-----------------------|

e|---7----------------10-12-12b--------|
b|-7---10-10/12-12-12-----------12-12--|
g|-------------------------------------|
d|-------------------------------------|
a|-------------------------------------|
E|-------------------------------------|

e|-14b--14-12---------------------------------------|
b|------------15-12----------10b-10-8-7-------------|
g|------------------14\9/11-------------9-7-6-------|
d|--------------------------------------------10-9~-|
a|--------------------------------------------------|
E|--------------------------------------------------|

e|-------------------------------|
b|-7----9-----10--1010101010-----|
g|-7----9-----11--1111111111-----|
d|---9~---9~-----------------9sb-|
a|-------------------------------|
E|-------------------------------|

e|-7-----7--------------12---7--------------------------------|
b|-------7----12-12-12b------7---------------------7-7-7------|
g|--------------------------------9sb---7-9--------7-7-7---9b-|
d|------------------------------------------9-9~---7-7-7h9----|
a|------------------------------------------------------------|
E|------------------------------------------------------------|

e|-------------------------------------------10-------10-12b-12b-12p10--|
b|-------7b-7b----------------------------12-------10-------------------|
g|9b-----9b-9b---9bp7-9b-9b--p0-7brb------------------------------------|
d|-----------------------------------9----------------------------------|
a|----------------------------------------------------------------------|
E|----------------------------------------------------------------------|

e|-----------------------------------------------|
b|-10-10-10--------------------------------------|
g|----------9/11-9brb----------------------------|
d|--------------------9-----7--------------------|
a|----------------------------10-9-5-7-5-4-0-3-2-|
E|-----------------------------------------------|

e|-------------------------10-12-12b------10-12----|
b|-7b----9b----------10-12----------------------12-|
g|-7b----9b-----7/11-------------------------------|
d|----9~----9~-------------------------------------|
a|-------------------------------------------------|
E|-------------------------------------------------|

e|-19-22b-22-22-22----------------------------------------------|
b|-----------------22b~-------15-17b-15b-------17b---17-15b-----|
g|-------------------------16------------16~----------------16~-|
d|--------------------------------------------------------------|
a|--------------------------------------------------------------|
E|--------------------------------------------------------------|

e|------------------10-------------22b-22-22-22------|
b|---------------12----12-------19--------------22b~-|
g|-9-7-9-9/11----------------------------------------|
d|---------------------------------------------------|
a|---------------------------------------------------|
E|---------------------------------------------------|

e|-----------------------------------------22-----|
b|-22b-22b------------------19-19---22-22b----22b-|
g|------------21b-19~---21b-21--------------------|
d|------------------------------------------------|
a|------------------------------------------------|
E|------------------------------------------------|

e|----22b-22-22-22-------------------------------|
b|-19--------------22b-19-22p19------------------|
g|------------------------------19---------------|
d|---------------------------------21p19-19------|
a|------------------------------------------21~\-|
E|-----------------------------------------------|

e|---------------------|
b|---------------------|
g|---------------------|
d|-9-7-----------------|
a|-----10-6-7-5-4-3-2--|
E|---------------------|

VERSE:
Bm7
Money, it's a crime.
Share it fairly but don't take a slice of my pie.
Money, so they say
Is the root of all evil today.

F#m7                                  Em
But if you ask for a raise it's no surprise that they're
            Bm
giving none away.
Rate this tab: 1 Star2 Stars3 Stars4 Stars5 Stars (2 votes, average: 4.00 out of 5)
Lyrics for This Tab: Money Lyrics by Pink Floyd

Talk about Money Guitar Tab

4 Comments on This Tab

  1. please put the solo!!!

  2. Good idea, fabian! – I’ve now added it to this tab. :)

Pings and Trackbacks

Comment on This Tab

Money Related Tabs