Pink Floyd Guitar Tabs and More @ PinkFloydTabs.com

More Blues Tab

More Blues Tab - Pink Floyd

E|----------------------------------------------------------------------|
B|--13b15-------13b15--13b15--(15)r13-----------------------------------|
G|--------------------------------------------------10b11--10b11--------|
D|----------------------------------------------------------------------|
A|----------------------------------------------------------------------|
E|----------------------------------------------------------------------|

E|----------------------------------------------------------------------|
B|----------------------------------------------------------------------|
G|--5b6p3--5------------------------3-5b6r5p3---------------------------|
D|------------3----------------3-5-------------5----------3h5-3---------|
A|------------------------3\5-------------------------------------------|
E|----------------------------------------------------------------------|

E|----------------------------------------------------------|
B|----------------------------------------------------------|
G|--5b7------7/5-3-5-3--------------------------------------|
D|---------------------5-3-2----5-5\7-5---------5-5--7\9----|
A|-----------------------------------------5\7--------------|
E|----------------------------------------------------------|

E|----------------------------------------------------------------------|
B|----------------------------------------------------------------------|
G|--5b7--7r5-4--5b7p3--5b7--7r5p3------3br(3)--------5--5\7--5----------|
D|--------------------------------5-----------3-2-----------------------|
A|----------------------------------------------------------------------|
E|----------------------------------------------------------------------|
                                       ^1/4 bend and release
E|----------------------------------------------------------------------|
B|----------------------------------------------------------------------|
G|-10b12--12r10-9--9h10-9--7h9p7----5b6r5-3--3h5-3----------------------|
D|--------------------------------------------------5p3h5--5-3----------|
A|--------------------------------------------------------------5/3-1---|
E|----------------------------------------------------------------------|

E|----------------------------------------------------------------------|
B|--------------------13b15-13b15-13b15-13-12-13-13b15------------------|
G|----------------------------------------------------------------------|
D|----------------------------------------------------------------------|
A|----------------------------------------------------------------------|
E|--1\3-3---------------------------------------------------------------|

E|13b14-13b15-13b14-----------------------------------------------------|
B|-------------------13b15p11----11-11/---------------------------------|
G|----------------------------12---------5b7--(7)-5b6-5-3h5-5b6-5b6p3---|
D|--------------------------------------------------------------------5-|
A|----------------------------------------------------------------------|
E|----------------------------------------------------------------------|

E|--------------------------------------------------------------------|
B|--------------------------------3----------------------------3------|
G|--3-3------------3-3------3b4-5---5-3-------3----5b6-5-3-5-----3----|
D|------5--------------5----------------5p3-5----------------------5--|
A|--------5\6-5-------------------------------------------------------|
E|--------------------------------------------------------------------|

E|--------------------------------------------------------------------|
B|--------------------------------------------------------------------|
G|---------------------10b12--10-9-10-10\12----12b14r12---------------|
D|--3-5--3-2\3\4\5----------------------------------------------------|
A|--------------------------------------------------------------------|
E|--------------------------------------------------------------------|
                                                   ^slow bend & release
E|-----------------------------------------------|
B|-----------------------------------------------|
G|--3b4--3-5--5b6p3--5p3-5b6-3---------3-5-5b7---|
D|------------------------------5-3-5------------|
A|-----------------------------------------------|
E|-----------------------------------------------|

E|------------------------------------------------------------------|
B|------------------------------------------------------------------|
G|--5(6)r5p3-5-3------------------------------3---3--5b6p3-5-3------|
D|---------------5-3-5---------------3p0--3h5---5--------------5----|
A|---------------------5/2--2\3\4\5---------------------------------|
E|------------------------------------------------------------------|
    ^pre bend
E|------------------------------------------------------------------|
B|-------------------------------------------------8-8--10b11r10-8--|
G|--3b---------------7(9)r7---------------7-7--7\9------------------|
D|-----------------------------7----7-7\9---------------------------|
A|---------5---------------------9----------------------------------|
E|------------------------------------------------------------------|
    ^1/4 bend            ^pre bend
E|------------------------------------------------------------------|
B|--10-10(11)r10-8h10-8---------------------------------------------|
G|------------------------------------------------------------------|
D|------------------------------------------------------------------|
A|------------------------------------------------------------------|
E|------------------------------------------------------------------|
         ^pre bend
Rate this tab: 1 Star2 Stars3 Stars4 Stars5 Stars
Tab filed under: More, Guitar Tabs
Lyrics for This Tab: More Blues Lyrics by Pink Floyd

Talk about More Blues Guitar Tab

Comment on This Tab

More Blues Related Tabs