Pink Floyd Guitar Tabs and More @ PinkFloydTabs.com

Obscured by Clouds Tab

Obscured by Clouds Tab - Pink Floyd

e|----------------|-----------------|------------------|----------------|
B|----------------|-----------------|------------------|----------------|
G|----------------|-----------------|------------------|----------------|
D|-7--------------|-----------------|------------------|----------------|
A|-0--------------|-----------------|------------------|----------------|
E|----------------|-----------------|------------------|----------------|

e|----------------|-----------------|------------------|----------------|
B|----------------|-----------------|------------------|----------------|
G|----------------|-----------------|------------------|----------------|
D|-7--------------|-----------------|------------------|----------------|
A|-0--------------|-----------------|------------------|----------------|
E|----------------|-----------------|------------------|----------------|

I think this is played on a slide guitar but it sounds good on a normal one anyway.
  
e|----------------|-----------------|------------------|----------------|
B|----------------|-----------------|------------------|----------------|
G|-7--/9----------|-----------------|------------------|----------------|
D|----------------|-----------------|-10--/12----------|----------9\--5-|
A|----------------|-----------------|------------------|----------------|
E|----------------|-----------------|------------------|----------------|

e|----------------|-----------------|------------------|----------------|
B|----------------|-----------------|------------------|----------------|
G|----------------|-----------------|------------------|----------------|
D|-5--/7----------|-----------------|------------------|----------------|
A|----------------|-----------------|------------------|----------------|
E|----------------|-----------------|------------------|----------------|

e|----------------|-----------------|------------------|----------------|
B|----------------|-----------------|------------------|----------------|
G|-7--/9----------|-----------------|------------------|----------------|
D|----------------|-----------------|-10--/12----------|----------9\--5-|
A|----------------|-----------------|------------------|----------------|
E|----------------|-----------------|------------------|----------------|

e|----------------|-----------------|------------------|----------------|
B|----------------|-----------------|------------------|----------------|
G|----------------|-----------------|------------------|----------------|
D|-5--/7----------|---------5--2--0-|------------------|----------------|
A|----------------|-----------------|-0----------------|----------------|
E|----------------|-----------------|------------------|----------------|

e|----------------|-----------------|------------------|----------------|
B|----------------|----------8--/10-|-10----------8--8-|-8--------------|
G|----------7--/9-|-9---------------|------------------|------7/-----/9-|
D|----------------|-----------------|------------------|----------------|
A|----------------|-----------------|------------------|----------------|
E|----------------|-----------------|------------------|----------------|

e|----------------|-----------------|------------------|----------------|
B|----------------|-----------------|------------------|----------------|
G|----------------|-----------------|------------------|----------------|
D|------------5/--|/7---------------|-------7--5--2--0-|----------------|
A|----------------|-----------------|------------------|-0--------------|
E|----------------|-----------------|------------------|----------------|

e|----------------|-----------------|------------------|----------------|
B|----------------|-----------------|------------------|----------------|
G|----------------|-----------------|---------2/-------|/14--14---------|
D|----------------|-----------------|------------------|----------------|
A|----------------|-----------------|------------------|----------------|
E|----------------|-----------------|------------------|----------------|

e|----------------|-----------------|------------------|----------------|
B|----------------|-----------------|------------------|----------------|
G|-------17----12-|-12/14-----------|---------2/-------|/14-------------|
D|----------------|-----------------|------------------|----------------|
A|----------------|-----------------|------------------|----------------|
E|----------------|-----------------|------------------|----------------|

e|----------------|-----------------|------------------|----------------|
B|----------------|-----------------|------------------|----------------|
G|-------17----12-|-12/14-----------|---------------12/|14--14--14------|
D|----------------|-----------------|------------------|----------------|
A|----------------|-----------------|------------------|----------------|
E|----------------|-----------------|------------------|----------------|

e|----------------|-----------------|------------------|----------------|
B|----------------|-----------------|------------------|----------------|
G|-------------12/|14--14--14-------|---------------12/|14--14--14------|
D|----------------|-----------------|------------------|----------------|
A|----------------|-----------------|------------------|----------------|
E|----------------|-----------------|------------------|----------------|

e|----------------|-----------------|------------------|----------------|
B|----------------|-----------------|------------------|----------------|
G|-------------12/|14--14--14-------|---------------12/|14--14--14------|
D|----------------|-----------------|------------------|----------------|
A|----------------|-----------------|------------------|----------------|
E|----------------|-----------------|------------------|----------------|
Rate this tab: 1 Star2 Stars3 Stars4 Stars5 Stars (2 votes, average: 5.00 out of 5)
Tab filed under: Obscured by Clouds, Guitar Tabs
Lyrics for This Tab: Obscured by Clouds Lyrics by Pink Floyd

Talk about Obscured by Clouds Guitar Tab

Comment on This Tab

Obscured by Clouds Related Tabs