Pink Floyd Guitar Tabs and More @ PinkFloydTabs.com

Set the Controls for the Heart of the Sun Tab

Set the Controls for the Heart of the Sun Tab - Pink Floyd

e-------------------------------
B-(0:00)------------------------
G------------------------------- Repeat until
D------------------------------- (0:54)
A-/7--7--7h8~--7---7\5--5--5/7--
E-------------------------------

e-----------------------------------------------------
B-(0:54)----------------------------------------------
G-----------------------------------------------------
D--7--7h8~--7---7\5--5--5/7--7--7h8~--7---7\5--5--5/7-
A-----------------------------------------------------
E-----------------------------------------------------

e--------------------------------------------------------------
B-(1:01)-------------------------------------------------------
G--------------------------------------------------------------
D--------------------------------------------------------------
A-/7--7--7h8~--7---7\5--5--5/7---/7--7--7h8~--7---7\5--5--5/7--
E--------------------------------------------------------------

e------------------------------------------------------------------------
B-(1:08)-----------------------------------------------------------------
G------------------------------------------------------------------------
D------------7~--5~---5~\3--3--3p2---------------7~--5~---5~\3--3--3p2---
A--/7--7--7----------------------------/7--7--7--------------------------
E------------------------------------------------------------------------

e-------------------------------
B-(1:16)------------------------
G------------------------------- Repeat until
D------------------------------- (1:45)
A-/7--7--7h8~--7---7\5--5--5/7--
E-------------------------------

e-----------------------------------------------------
B-(1:45)----------------------------------------------
G-----------------------------------------------------
D--7--7h8~--7---7\5--5--5/7--7--7h8~--7---7\5--5--5/7-
A-----------------------------------------------------
E-----------------------------------------------------

e--------------------------------------------------------------
B-(1:52)-------------------------------------------------------
G--------------------------------------------------------------
D--------------------------------------------------------------
A-/7--7--7h8~--7---7\5--5--5/7---/7--7--7h8~--7---7\5--5--5/7--
E--------------------------------------------------------------

e------------------------------------------------------------------------
B-(1:59)-----------------------------------------------------------------
G------------------------------------------------------------------------
D------------7~--5~---5~\3--3--3p2---------------7~--5~---5~\3--3--3p2---
A--/7--7--7----------------------------/7--7--7--------------------------
E------------------------------------------------------------------------

e-------------------------------
B-(2:06)------------------------
G------------------------------- Repeat until
D------------------------------- (2:13)
A-/7--7--7h8~--7---7\5--5--5/7--
E-------------------------------

e-----------------------
B-(2:13)----------------
G----------------------- Repeat until
D----------------------- (3:13)
A--5~/7~--7~-7~~--------
E-----------------------
 "The heart of the sun"

e-------------------------------
B-(2:13)------------------------
G------------------------------- Repeat until
D------------------------------- (3:42)
A-/7--7--7h8~--7---7\5--5--5/7--
E-------------------------------

e-----------------------------------------------------
B-(3:42)----------------------------------------------
G-----------------------------------------------------
D--7--7h8~--7---7\5--5--5/7--7--7h8~--7---7\5--5--5/7-
A-----------------------------------------------------
E-----------------------------------------------------

e--------------------------------------------------------------
B-(3:49)-------------------------------------------------------
G--------------------------------------------------------------
D--------------------------------------------------------------
A-/7--7--7h8~--7---7\5--5--5/7---/7--7--7h8~--7---7\5--5--5/7--
E--------------------------------------------------------------

e------------------------------------------------------------------------
B-(3:56)-----------------------------------------------------------------
G------------------------------------------------------------------------
D------------7~--5~---5~\3--3--3p2---------------7~--5~---5~\3--3--3p2---
A--/7--7--7----------------------------/7--7--7--------------------------
E------------------------------------------------------------------------

e--------------------------------------------------------------
B-(4:04)-------------------------------------------------------
G--------------------------------------------------------------
D--------------------------------------------------------------
A-/7--7--7h8~--7---7\5--5--5/7---/7--7--7h8~--7---7\5--5--5/7--
E--------------------------------------------------------------
 "Set the controls for the heart of the sun"

e-----------------------
B-(4:11)----------------
G----------------------- Repeat until
D----------------------- (5:00)
A--5~/7~--7~-7~~--------
E-----------------------
 "The heart of the sun"

e-------------------------------
B-/5--5--5h6---5---5\3--3--3/5--
G------------------------------- Repeat until
D------------------------------- (5:12)
A-(5:00)------------------------
E-------------------------------

e--------------------------------------------------------
B--6~--5~--3~--5~---5~--6~--8~--10~--8~--6~--5~--3~--5~--
G--------------------------------------------------------
D--------------------------------------------------------
A-(5:12)-------------------------------------------------
E--------------------------------------------------------
 Start to Fade out...


NOTATION USED:

Send questions, suggestions, or praises to:
h = hammer on    p = pull off
b = bend         r = release bend
\ = slide        ~ = let ring
(CD time in parenthesis)
Rate this tab: 1 Star2 Stars3 Stars4 Stars5 Stars
Lyrics for This Tab: Set the Controls for the Heart of the Sun Lyrics by Pink Floyd

Talk about Set the Controls for the Heart of the Sun Guitar Tab

Comment on This Tab

Set the Controls for the Heart of the Sun Related Tabs