Pink Floyd Guitar Tabs and More @ PinkFloydTabs.com

Shine On You Crazy Diamond Tab

Available Video Lesson

Shine On You Crazy Diamond Backing Track:

Audio clip: Adobe Flash Player (version 9 or above) is required to play this audio clip. Download the latest version here. You also need to have JavaScript enabled in your browser.

Shine On You Crazy Diamond Backing Track (ver 2):

Audio clip: Adobe Flash Player (version 9 or above) is required to play this audio clip. Download the latest version here. You also need to have JavaScript enabled in your browser.


Shine On You Crazy Diamond Tab - Pink Floyd

legato						---7>6>7----
bend(and release)				--7>(8)>7---
hold bend					--7>(8)===>7-
vibrato						--7vvvvvvvv-
slide						---7/8------


-------------------------------------------------------------------
----18>(20)!--18--18>(20)!-----------------------------------------
-----------------------------------15--17--17>(19)--17--17>(19)!---
-------------------------------17----------------------------------
-------------------------------------------------------------------
-------------------------------------------------------------------


-------------------------------------------------------------------------
-------------------------------------------------------------------------
(19)>17p15--17---17>(19)---17-17>(19)>(18)--14h15h14----14---------------
------------------------------------------------------17---15-15----15!--
-----------------------------------------------------------------17------
-------------------------------------------------------------------------


-------------------------------------------------------------------------
-------------------------------------------------------------------------
------------------------------------------------------------------17>(19)
-17>(20)--17>(20)!==(20)=(20)-15-17-17>(20)-17>(20)>17--15--17-17!----17>
-------------------------------------------------------------------------
-------------------------------------------------------------------------


----------------------15--18--18>(20)-18!\-------------------------------
-18--18(20)!--18>(20)----------------------------------------------------
--------------------------------------------(19)>17p15!------------------
------------------------------------------------------------------15-----
--------------------------------------------------------------17---------
-------------------------------------------------------------------------


-------------------------------------------------------------------------
-------------------------------------------------------------------------
---------------------------------------------------------(19)>17--15--17-
---17!--17>(19)--17>(20)!====(20)==(17)---15--17!------------------------
-------------------------------------------------------------------------
-------------------------------------------------------------------------


------------------------------15----------
-----------------18---18>(20)----18>(20)!\
-17>(19)-17>(19)--------------------------
------------------------------------------
------------------------------------------
------------------------------------------

---------------------------------------
--18>(20)>18-15------------------------
----------------17>(19)!-17>(17>19)>17-
---------------------------------------
---------------------------------------
---------------------------------------

----------------------------------------
----------------------------------------
15-17--17!\----------15----(19)>17-15-17
--------------15>17---------------------
----------------------------------------
----------------------------------------

------------------------------------
-----------------------18-----------
--17>(19)!---17>(19)-------17>(19)!-
-----------------------------------
-----------------------------------
-----------------------------------

---------15---18!-----18--20>(22)!---18>(20)>18--17--------------
-18>(20)----------15----------------------------------18----20---
-----------------------------------------------------------------
-----------------------------------------------------------------
-----------------------------------------------------------------
-----------------------------------------------------------------

====================================================================
end intro
====================================================================


---------------0----
------6-------------		<-- repeat 4 times.
----------0---(0)---
---8----------(8)---
--------------------
--------------------



C						 Gm7
-------------0----------------------------------------------------0---
------6-----------------------------------------------------6---------
---------0-----------------------------------------------------0------
---8-----------------------------------------------------8------------
-----------------3--3--3--3--3--3--3--3--3--3/5-----------------------
-----------------1--1--1--1--1--1--1--1--1--1/3-----------------------


		Eb		D				Gm7
------------------------------------------------------------------------
------6-----------------------------------------------------------------
----------0---8------------8---7----------------------------------------
--8-----------8------------8---7----------------------------------------
-------------------------------------3--3--3--3--3--3--3--3--3--3/5-----
-------------------------------------1--1--1--1--1--1--1--1--1--1/3-----



------------------0---
-------6--------------
------------0---------
---8------------------
----------------------
----------------------


solo;
-----


---------------------------------3---------------------------------------
------------------------------3-----3------------------------------------
-17>(19)>17---15--17--------------------5>(7)----(7)>5>3------5---3------
----------------------17\----------------------------------5----------5--
-------------------------------------------------------------------------
-------------------------------------------------------------------------


-18>15-----18---17>(18)--17vvv-------------------------------------------
-15----15--15-------------------18>15--18>(20)----18>(20)>18>15--18vvvv--
-------------------------------------------------------------------------
-------------------------------------------------------------------------
-------------------------------------------------------------------------
-------------------------------------------------------------------------



--18>15------18>15-----18>(20)---18>(20)>1815--18------------------
---------15--------15------------------------------18>(20)--18\----
-------------------------------------------------------------------
-------------------------------------------------------------------
-------------------------------------------------------------------
-------------------------------------------------------------------


------------------------------------------------------------------
------------------------------------------------------------------
-15>(17)>(19)>15--12--15>(16)vvv-12---6\5--3>(4)------------------
-------------------------------------------------5----------------
---------------------------------------------------4\3---1--3/5---
------------------------------------------------------------1/3---


--------------------------6--------------------------------------
-----------------------------5/6--8/-------(11)>10>8------8/-----
------3--------------6>7------------------------------10---------
------3--3/5vvvvvv-----------------------------------------------
--4/5------------------------------------------------------------
-----------------------------------------------------------------


-------------------------------------------------------------------------
-------------------------------------------------------------------------
---15--17>(19)>17>(19)----17>(19)>(20)vvvvv----17>(19)>(20)---17>(20>17--
-------------------------------------------------------------------------
-------------------------------------------------------------------------
-------------------------------------------------------------------------


--------------------------------15----15-----15--------------15---15--
----------------------------18>(20)------18>(20)>18>15---18>(20)------
----------------------------------------------------------------------
--16---16>17>16\14>16--16---------------------------------------------
----------------------------------------------------------------------
----------------------------------------------------------------------


--17>(18)--17>(18)---17-----------------------------------------------
-------------------------18>(20)----(20)>18>15---18-------------------
-----------------------------------------------------17>(19)=====>17--
----------------------------------------------------------------------
----------------------------------------------------------------------
----------------------------------------------------------------------


----------------------------------------------------------------------
----------------------------------------------------------------------
--(19)>17>15------------3---5---5>(7)>(8)>5---(8)>5--3--5--5>(7)vvvv--
--------------17\----5------------------------------------------------
----------------------------------------------------------------------
----------------------------------------------------------------------


----------------------------------------------------------------------
----------3----6------------------------------------------------------
---5>(7)-----------5>(8)==========>5--(7)>5>3-----5--5>(7)vvvvvvvv>5--
----------------------------------------------------------------------
----------------------------------------------------------------------
----------------------------------------------------------------------


Keyboard solo

Gm					 Cm
------------------------------------------------------------
---------5\3-------------------5\3-------------------10\8---
------------------------------------------------------------
---3/5---5\3--------------3/5--5\3-------------8/10--10\8---
---------------------------------------5--------------------
------------------------------------6-----------------------


Gm		   Eb	   D	 Eb		D    Gm    Cm   Gm    D7#9
-----------------------------------------------------------------------
--------5\3-----8------7------8------11\---7----------------------6----
------------------------------------------------------------------5----
---3/5--5\3-----8------7------8------11\---7----------------------4----
------------------------------------------------------------------5----
-----------------------------------------------------------------------


solo

-----15----------15---18>15----------------3----------------0----------
-15-----18>(20)--------------18>(20)\---3------6-----------------------
---------------------------------------------------5>(7)----5>3--5--3--
-----------------------------------------------------------------------
-----------------------------------------------------------------------
-----------------------------------------------------------------------


----------------------------------------------------18-----------------
---------------------------------11----11---18>(20)-----18>(20)vvvv18\-
-------15>(17)>15>(19)>15--11/12----12---------------------------------
-5vvvv-----------------------------------------------------------------
-----------------------------------------------------------------------
-----------------------------------------------------------------------


------6>5--------------------------------------------------------------
-----------6/8\--------------------------------------------------------
-6/7--------------(17)>15>(19)>15--------15--17>(18)>17>15--17--17>15--
-----------------------------------15/17-------------------------------
-----------------------------------------------------------------------
-----------------------------------------------------------------------


-----------------------------3------------------------------------------
--------------------------------6--------------------3------------------
--17-17--17>15--17>(19)vvvv\-------5>(7)---5--3>(5)--3---3-5---3\2------
-------------------------------------------------------5-----5-----3----
---------------------------------------------------------------------3/5
------------------------------------------------------------------------


-----------------------------------------------15------------------------
-------------------------------------18>(20)--------18>(20)-----18>(20)--
--------3---------15>(17)>15>(19)>0--------------------------0-----------
-----------3>5-----------------------------------------------------------
--4/5--------------------------------------------------------------------
-------------------------------------------------------------------------


--15--18>15--18>(20)vvv----18>(20)>18>15--18----------------------------
---------------------------------------------18>(20)--------------------
-------------------------0-------------------------------15--17--17>(19)
-----------------------------------------------------17-----------------
------------------------------------------------------------------------
------------------------------------------------------------------------


--------------------------------------------------------------------
--------------------------------------------------------------------
--17>(20)---17>(20)>17---------------------------------14--15vvvv\--
-------------------------16vvvv---16>17>16\14--16--17--16--17vvvv\--
--------------------------------------------------------------------
--------------------------------------------------------------------

-----3-----------------------------------------------------------
--3----6---------------------------------------------------------
----------5>(7)vvvv>5---(8)>5>3---5--3----3----------------------
----------------------------------------5----5-------------------
------------------------------------------------5\3--1--3/5--5\--
end solo

(from "Remember when you were young....)

-------------------------------------3-------
----------------------------------3--3-------
-----3-----5>(7)>5----------------3----------
--5-----5------------4---------3-------------
-------------------------------1----------5--
---------------------------------------------


(from "Shine on....)

--------------------------------------------------
--------------------------------------------------
--------------------------------------------------
--8---8---5---3---3-------------------------------
--6---5---3---1---3---3>(5)>3---------------------
------------------1-------------1vvvv---1--2vvvv--


(from "Now there's a look....)

-----------------------------------------------
----6>(8)>6---------2------------3--3--3-------
-------------5>(7)---------------3--3--3-------
-----------------------------3---3--3----------
-----------------------------1-------------5\--
-----------------------------------------------



(from "Shine On....")

-------------------------13--13--13--10--8/10--1--
-------------------------13--13--13--10--8/10--1--
---8---8---5---3----------------------------------
---6---5---3---1----------------------------------
--------------------1-----------------------------
--------------------------------------------------


(from "You were caught in the...)
	     and
(from "Well you wore out your...)


-----------------------------------------------------------------
-----------------------------------------------------------------
-----3--5--5>(7)>5-------3--5--5>(7)>5>3-----3--5--5>(7)>5-------
--5-------------------4-------------------3------------------2---
-----------------------------------------------------------------
-----------------------------------------------------------------


------------------------------------------------------------------1---2--
--------------------------------------5---------------6-----------------3
---------------8-----8-------------6-----6---------7-----7---------------
---------------8>10--8----------5----------------8----------8--0----0----
3--5--6--8/10----------10\7--7--------------7--8-------------------------
-------------------------------------------------------------------------


interlude is part 4


(from "You reached for the ...)
---------------------------------------------------------3-------------
----------------------11--13>(15)>13-----------------3---3---3---------
-----------------------3---5>(7)>5--->3--------------3-------3---------
---5-----------------------------------------4---3---------------------
-------------------------------------------------1------------------5--
---3-------------------------------------------------------------------


(from "Shine On....")
------------------------------------------------------------
------------------------------------------------------------
------------------------------------------------------------
---8---8---5---3--------------------------------------------
---6---5---3---1--------3---3>(5)--3------------------------
--------------------1---1-------------3>(5)---1vvvvvv--1/2--



(from "threatened by shodows...)
------------------------------------------------------------
---6>(8)>6>(8)>6--6-----------------------------3-----3-----
---------------------5>(7)---3>5>3vvvvvv--------3--3--3-----
---------------------------------------------3--3--3-----3--
---------------------------------------------1--------------
-----------------------------------------------------------

(from "Shine on .....")
------------------------13--13--13--10--8\1--
------------------------13--13--13--10--8\1--
---------------------------------------------
---8--8--5--3--------------------------------
---6--5--3--1--------------------------------
-----------------1---------------------------

two guitars

-----------------------------------------------------
--13>(15)vvvvvvvvv--(15)>13>11--13>(15)vvvvvvvvvvv---
---5>(7)vvvvvvvvvv---(7)>5>3-----5>(7)vvvvvvvvvvvv---
-----------------------------------------------------
-----------------------------------------------------
-----------------------------------------------------


-----------------------------------------13--15>(16)--15vvvvv\--
--(15)>13--11--13--14--15vvvv---15--16----6---8>(9)----8vvvvv---
---(7)>5----3---5---6---7vvvv----7---8--------------------------
----------------------------------------------------------------
----------------------------------------------------------------
----------------------------------------------------------------


-------------------------------------------------------------------------
--15>(16)-----15----16>(18)--16>15---13vvv-------------------------------
---7>(8)-------7-----8>(10)---8>7-----5vvv----12>10vvvvvv----------------
-----------------------------------------------------------------4vvvvv--
-------------------------------------------------------------------------
--------------------------------------------3>(5)>3--1vvvv---1---2vvvvv--

---------------0------------------------------0----
------6-----------------------------6--------------
---------0----(0)------------------------0---(0)---
--8-----------(8)---------------8------------(8)---
---------------------------------------------------
---------------------1>3>1>3-----------------------


--8-------10------8------0------8------10-------8--------
----6--------6------6------6------6-------6--------6-----
---------------------------------------------------------
-------8-------8------8------8------8-------8---------8--
---------------------------------------------------------
---------------------------------------------------------


-0--------8--------10------8-------0------8--------10-------8--------
----6--------6---------6-----6-------6-------6--------6--------6-----	
---------------------------------------------------------------------	 
-------8--------8--------8------8-------8-------8--------8-------8---	   
---------------------------------------------------------------------	 
---------------------------------------------------------------------
repeat 3 times.


--6---6------6-------5-------6-------6--------6------5------6---------
---------------8-------8-------8--------8-------8------8-------8------
----------------------------------------------------------------------
---------8--------8-------8-------8--------8-------8-----8--------8---
----------------------------------------------------------------------
----------------------------------------------------------------------


--5-------5-------4-------5--------6-----5--------4-----5---------
----7-------7-------7--------7--------7-----7--------7-----7------
------------------------------------------------------------------
------7--------7-------7--------7-------------7---------------7---
------------------------------------------------------------------
------------------------------------------------------------------


--0-------8--------10--------8-------0-------8-------10--------8-------
----6-------6----------6-------6-------6--------6--------6-------6-----
-----------------------------------------------------------------------	
------8--------8---------8--------8-------8--------8--------8-------8--	  
-----------------------------------------------------------------------	
-----------------------------------------------------------------------
repeat 8 times.

--6------6------5------6------6------6-----5-------6---------
----8------8------8-------8-----8-------8-----8------8-------
-------------------------------------------------------------
------8-------8------8------8------8-------------8------8\7--
-------------------------------------------------------------
-------------------------------------------------------------


--5-----5-----4-----5-----6------5-----4-----5---------
-----7----7-----7-----7-----7-------7-----7-----7------
-------------------------------------------------------
------------7-----7-----7-----7--------------------7---
-------------------------------------------------------
-------------------------------------------------------


--0-------8-------10------8------0--------8-------10--------8----------
-----6-------6-------6------6-------6-------6---------6--------6-------	
-----------------------------------------------------------------------
-------8-------8--------8------8-------8-------8---------8---------8---  	
-----------------------------------------------------------------------	
-----------------------------------------------------------------------
repeat and fadeout
Rate this tab: 1 Star2 Stars3 Stars4 Stars5 Stars (3 votes, average: 5.00 out of 5)
Tab filed under: Wish You Were Here, Guitar Tabs
Lyrics for This Tab: Shine On You Crazy Diamond Lyrics by Pink Floyd

Talk about Shine On You Crazy Diamond Guitar Tab

3 Comments on This Tab

  1. If you’d like the chords version of this tab, which can also be helpful, go here: http://www.pinkfloydtabs.com/shine-on-you-crazy-diamond-guitar-chords

  2. can you put the tab of the parts VI-IX

Comment on This Tab

Shine On You Crazy Diamond Related Tabs