Pink Floyd Guitar Tabs and More @ PinkFloydTabs.com

The Dogs of War Tab

The Dogs of War Backing Track:

Audio clip: Adobe Flash Player (version 9 or above) is required to play this audio clip. Download the latest version here. You also need to have JavaScript enabled in your browser.


The Dogs Of War Tab - Pink Floyd

Here are the chords, listen to the record to get the rhythm.

Cm
Dogs of war, and men of hate,

With no cause, we don't disciminate,

Discovery, is to be disowned,

Our currency, is flesh and bone,

Ebm
Hell opened up, and put on sale,

Gather 'round and haggle,

Cm
For hard cash we lie, and decieve,

But even our masters dont know the webs we weave,

Ab
One world, it's a battleground,

Fm
One world, and we will smash it down,

Cm
One world, one world

Cm
Invisable transfers, long distance calls,

Hollow laughter, in marble halls,

Steps have been taken, a silent uproar,

Has unleashed the dogs of war,

Ebm
You can't stop what has begun,

Signed, sealed, they deliver olivion,

Cm
We all have a dark side, to say the least,

And dealing in death is the nature of the beast

Ab
One world, it's a battleground,

Fm
One world, and we will smash it down,

Cm
One world, one world,

[solo]

[last verse w/ overdubs below]
Cm
The dogs of war wont negotiate

The dogs of war wont capitulate

They will take, and you will give,

And you must die, so that they may live,

Ebm
You can knock, at any door,

But where ver you go, you now they've been there before,

Cm
Winners can lose, things can get strained,

But whatever you change, you know the dogs remain,

Ab7
One world, it's a battle ground,

Fm			G7sus4
One world, and we will smash it down,

Cm
One world, one world .......

Repeat second verse with different lyrics

Solo
						   s
-------------------------------------------------------|
-------------------------------------------------------|
--10>12===(12)>10>8-------------------------8------8---|
---------------------10vvvvv--10vvvvvv-10\-----10------|
-------------------------------------------------------|
-------------------------------------------------------|

------------------------------------------------|
--/13--13vvvvvv--13vvvv--13vvv--13>11>13>(16)---|
------------------------------------------------|
------------------------------------------------|
------------------------------------------------|
------------------------------------------------|

-----------------------------|
-----------------------------|
--3--------------------------|
-----5-------------1-----1---|
--------3--3--3>1-----3------|


---------------------------------------------11-------------------------|
----11-------11------11---11--------------------------------------------|
10>(11)--10>(11)-10>(11)--10>8------10>(11)------10------8>10--10--10>8-|
--------------------------------10-------------------10-----------------|
------------------------------------------------------------------------|
------------------------------------------------------------------------|

---------------------------|
---------------------------|
------10>0--------------8--|
--10--------10vvvvvvvv-----|
---------------------------|
---------------------------|

------------------------------------------------------------|
------7--9--9>(11)--9>(11)--9>7-----7--9--9>(10)>9>7-----7--|
--/8-----------------------------8--------------------8-----|
------------------------------------------------------------|
------------------------------------------------------------|
------------------------------------------------------------|

-------------11--11-----------------------------------------------------|
-/11--14>11----------14>11----------------------------------------------|
----------------------------13>11------11--13>(14)>13>11----13-------11-|
-----------------------------------13--------------------13-----13vv----|
------------------------------------------------------------------------|
------------------------------------------------------------------------|

-----------------------11>8--8--11>8--11>8--8---------11--8--8--8--11>8-|
---------13vvv--13>11--------------------------11--8--------------------|
--13\/------------------------------------------------------------------|
------------------------------------------------------------------------|
------------------------------------------------------------------------|
------------------------------------------------------------------------|

--11>(13)>(14)--11--8--11--10>8--12--8vvvvvv\-|
----------------------------------------------|
----------------------------------------------|
----------------------------------------------|
----------------------------------------------|
----------------------------------------------|

------11--13vvvvvvvv>11--13--13--13--11------11--------11---------------|
--13-------------------------------------13------13vv------13>(16)vvvv\-|
------------------------------------------------------------------------|
------------------------------------------------------------------------|
------------------------------------------------------------------------|
------------------------------------------------------------------------|

--------------------------------------8---------------------------------|
-----------------------------------------/13vvv--10>(11)>10-------------|
-------8--10--10>8------8--10--10>12-------------10>(11)>10------8------|
--/10---------------10---------------------------------------10-----10--|
------------------------------------------------------------------------|
------------------------------------------------------------------------|

sax solo

fills for last verse

of war...	    won't..
----------------------------|
---------------11-----------|
-----------10>(11)>10>8-----|
----------------------------|
----------------------------|
----------------------------|

..negotiate.
-------------------------------------------|
-------------------------------------------|
---------------8vvvvvvvvvvvv---------------|
------------------------------10vvvvvvvvv--|
-------------------------------------------|
-------------------------------------------|

... capitulate
-------------------8--------------------------|
----------------8-----/13vvvvvv>11--13>(16)---|
----------------------------------------------|
----------------------------------------------|
----------------------------------------------|
----------------------------------------------|

...take			and....
---------------------------------|
---------------------------------|
----------(11)>10>8--------------|
---------------------------------|
---------------------------------|
---------------------------------|

.... live	   You may....
-----------------------------|
------------/11\/\/>9>7------|
-----------------------------|
-----------------------------|
-----------------------------|
-----------------------------|

...door
------------11-------|
---9>(11)--------7---|
---------------------|
---------------------|
---------------------|
---------------------|

  But......
------------|
------------|
-8vvvvvvvv--
------------|
------------|
------------|

...been there...
-------10-----------------|
----9>(10)>9>(10)--7------|
----------------------8\--|
--------------------------|
--------------------------|
--------------------------|

			     vv-- trill
	But winners......lose	 and.....
---------------------------------------------|
---------------------------------------------|
---------------------------------------------|
-10vvvv\---------------------8(10)-----------|
---------------------------------------------|
---------------------------------------------|

.... you change........
------------------------|
--------11--------------|
----10>(12)=====>10>8---|
------------------------|
------------------------|
------------------------|

...remain
----------------------------|
----------------------------|
---------10>(12)---10--8\---|
----------------------------|
----------------------------|
----------------------------|


One world.....
------------|
-6--4-------|
-6--5-------|
--------6---|
------------|
------------|

One world...down

One World
--------------------------------|
--------------------------------|
----------12>(15)====>12vvvvvv--|
--------------------------------|
--------------------------------|
--------------------------------|

One world
------------------------------------------------------|
------------------------------------------------------|
---------10>(12)>(11)>10----------------8-------------|
----------------------------------8>10-----10vvvvvv---|
------------------------------------------------------|
------------------------------------------------------|

One World					vvv-- trill
-----------------------------------------------------------|
---------11vvvvvvvvv---11----------------------------------|
-----10>(12)vvvvvvvv-------10>(11)>10>8--------------------|
-----------------------------------------10-----8(10)------|
-----------------------------------------------------------|
-----------------------------------------------------------|

one world
--------------------------------|
---------11-11>(13)vvvvvvvvv\---|
--------------------------------|
--------------------------------|
--------------------------------|
--------------------------------|
Rate this tab: 1 Star2 Stars3 Stars4 Stars5 Stars
Lyrics for This Tab: The Dogs of War Lyrics by Pink Floyd

Talk about The Dogs of War Guitar Tab

1 Comment on This Tab

  1. Marjai Zoltánné

    Sorry I’dont english. I’ will hear your music hear in Budapest- When comme your on Budapest? How much is one ticet. I”am 80 year old women, but I like Pink Floyd. The musik is form my fantasztik: Bye Marjai Zoltánné Susanna

Comment on This Tab

The Dogs of War Related Tabs