Pink Floyd Guitar Tabs and More @ PinkFloydTabs.com

Time Tab

Available Video Lesson

Time Backing Track:

Audio clip: Adobe Flash Player (version 9 or above) is required to play this audio clip. Download the latest version here. You also need to have JavaScript enabled in your browser.

Time Backing Track (ver 2):

Audio clip: Adobe Flash Player (version 9 or above) is required to play this audio clip. Download the latest version here. You also need to have JavaScript enabled in your browser.

Time Backing Track (ver 3):

Audio clip: Adobe Flash Player (version 9 or above) is required to play this audio clip. Download the latest version here. You also need to have JavaScript enabled in your browser.


Time Tab - Pink Floyd

INTRO:(clean guitar with echo)
e-----------------------------------------------------------------------
B-----------------------------------------------------------------------
G-----------------------------------------------------------------------
D-----------------------------------------------------------------------
A-----------------------------------------------------------------------
E--------------0------------------2--------------------0----------------

e------------------------------------------------------------------------
B------------------------------------------------------------------------
G------------------------------------------------------------------------
D------------------------------------------------------------------------
A------------------------------------------------------------------------
E----2----------------0---------------0--1--2-------------0--------------

e-----------------------------------------------------------------(12)---
B------------------------------------------------------------------------
G------------------------------------------------------------------------
D--------------------2---------------------------------------------------
A----------------2---------------------------------------0---------------
E---0--1--2-------------2--------2----------2----------------------------

e-----------------------------(12)---------------------------------------
B------------------------------------------------------------------------
G------------------------------------------------------------------------
D------------------------------------------------------------------------
A------------------------------------------------------------------------
E---2b(3)--2--0---------------------------------------0--1--2------------


VERSE:(w/ distortion) 
F#M                                       A            Asus4   A
Ticking away, the moments that make up a dull day
 	 	 	    lead A
E                                                  F#m
You fritter and wasste the hours in an offhand way
 	 	 	      lead B
 	 	     F#M           
Kicking around on a piece of ground in your home town

E                                                   F#m
Waiting for someone or something to show you the way.


Dmaj7                           Amaj7
Tired of lying in the sunshine, staying home to watch the rain,
Dmaj7                           Amaj7
You are young, and life is long, and there is time to kill today,
Dmaj7                       C#m7
And then one day you find, ten years have got behind you
Bm7                           E
No one told you where to run, you missed the starting gun.

SOLO:
e------------------------------------------------------------------------
B------------------------------------------------------------------------
G-------------------------------4>(6)======>(5)===>(6)vvvvvvvv>(5)>(6)---
D---2>4vvvvvvvvvvvvvvvv--------------------------------------------------
A------------------------------------------------------------------------
E------------------------------------------------------------------------

e--------------------------------------------------
B--------------------------------------------------
G----4<(6)=======>4>2---4>(6)--4vvvvvvvvvvvvvvv----
D--------------------------------------------------
A--------------------------------------------------
E--------------------------------------------------

e----------------------------------------------5>(6)----------------
B-------------------------------5-5>7>5>7>5>7------------7vvvvvv----
G-------------------------/6----------------------------------------
D---4<(6)====>4vvvvvv-----------------------------------------------
A-------------------------------------------------------------------
E-------------------------------------------------------------------

e-------------------------------------------9--9---9--9>(10)======>9--
B---------------------------------------------------------------------
G--4>(6)==========>4>2----4>(6)------6/9----9--9---9------------------
D---------------------------------------------------------------------
A---------------------------------------------------------------------
E---------------------------------------------------------------------

----------------------------------------------------------------------
--10>(12)======>10----9vvvvvvv--9>(10)=====>9-------------------------
-------------------------------------------------9>(10)==>(11)=====>9-
----------------------------------------------------------------------
----------------------------------------------------------------------
----------------------------------------------------------------------

e-----------------------------------17--------------------------------
B-----------14---17>(19)----17>(19)-----17>(19)========>17---17>(19)--
G-------14------------------------------------------------------------
D---/16---------------------------------------------------------------
A---------------------------------------------------------------------
E---------------------------------------------------------------------

e---------------------------------------------------------------------
B---17----------------------------------------------------------------
G--------16>(18)vvvvvvv--16>(19)>16>(18)vvvv---16>(18)==========>16vvv
D---------------------------------------------------------------------
A---------------------------------------------------------------------
E---------------------------------------------------------------------

--------------------------------------------17>(19)---17>(19)=====>17-
-----15--15---14>(15)>14----------------14----------------------------
-16------------------------14-----------------------------------------
-------------------------------16vvvv---------------------------------
----------------------------------------------------------------------
----------------------------------------------------------------------

----------------------------------------------------------------------
----17>(19)vvvvvvv----(19)>17--17vvvv---------------------------------
----------------------------------------(17)>16>14--14---16>(18)vvvv--
----------------------------------------------------------------------
----------------------------------------------------------------------
----------------------------------------------------------------------

e----19>(21)===>19--19>(21)=====>19--19vvvvvvv----
B-------------------------------------------------
G-------------------------------------------------
D-------------------------------------------------
A-------------------------------------------------
E-------------------------------------------------

e----16------------------------------------------------------
B--------17--------17/19vvvvvv---17>19>17---17\14vvvvvvvvv\--
G------------16----------------------------------------------
D------------------------------------------------------------
A------------------------------------------------------------
E------------------------------------------------------------


This begins where the rhythm changes to the progression that plays over the chorus(begins with Dmaj7)

----------------------------------------------------------
----------7---10/12--10vvvvv---9--10---9>10>9>7\5vvvvvv---
-----2/7--------------------------------------------------
--4-------------------------------------------------------
----------------------------------------------------------
----------------------------------------------------------

-------------------------------------------------------------
--7/9---9----7\5-----5\2/5-----2---2-------------------------
----------------------------------4>(6)======vvvv>4--4>(7)---
-------------------------------------------------------------
-------------------------------------------------------------
-------------------------------------------------------------

-------------------------------------------------------------------
-------------------------------------------------------------------
--(6)======>4--------(6)========>4>2>4>2vvvvvv--4>(6)=========>4---
-------------------------------------------------------------------
-------------------------------------------------------------------
-------------------------------------------------------------------

-------------------------------------------------------------------
-------------------------------------------------------------------
----4vvvvvvvvvvvv-----2vvvvvvvvvvvv--------4-----------------------
--------------------------------------4/6-------6\4--2vvvvvvv------
-------------------------------------------------------------------
----------------------------------------------------------------0--
 	 	 	 	
 	 	 	     lead c
(E)    F#m                                                    A
And you run, and you run to catch up to the sun, but it's sinking,

E                                              F#m              lead D
And racing around, to come up behind you again
 	 	 	  lead E
E                                                  A        Asus4   A
The sun is the same in a relative way, but your older,

E                                              F#m
Shorter of breath, and one day closer to death.

Dmaj7                           Amaj7
Every year is getting shorter, never seem to find the time
Dmaj7                            Amaj7
Plans that either come to naught, or half a page of scribbled lines
Dmaj7                           C#m
Hanging on in quite desperation is the english way, 
Bm                                           Bm7         F
The time is gone, the song is over thought I'd something more to say.

Leads:

A
--------------------------------------
----2----------2--------2-------------
---4>(6)======(6)=4--2--2-------------
----------------------------2vvvvv----
--------------------------------------
--------------------------------------

B
---7/9--9--9\7--7\---
---------------------
---7/9--9--9\7--7\---
---------------------
---------------------
---------------------

C
------------------
---7---5---3---2--
------------------
---7---5---4---2--
------------------
------------------

D
-----------------------------------------------
---2-------------------------------------------
--4>(6)------4>(6)>4>2-----2-------------------
------------------------4------2-vvvvvvvvvvv---
-----------------------------------------------
-----------------------------------------------

E
-----------------------
----10---12----10------
----0-----0-----0------
----11---12----11------
-----------------------
-----------------------
Rate this tab: 1 Star2 Stars3 Stars4 Stars5 Stars (4 votes, average: 5.00 out of 5)
Lyrics for This Tab: Time Lyrics by Pink Floyd

Talk about Time Guitar Tab

1 Comment on This Tab

  1. Very good layout and presentation. Easy to follow. God help you with copyright laws!

    Cheers.

Comment on This Tab

Time Related Tabs