Pink Floyd Guitar Tabs and More @ PinkFloydTabs.com

Vera Tab

Vera Tab - Pink Floyd

    4/4
      G                 D                Em                Em
---|-(3)-------------|-(2)----------|-----------------|-------0---------|
---|-(0)-------------|-(3)----------|-----0-----------|-----0-----------|
---|-(0)-------------|-(2)----------|---0---0---0---0-|---0-------0---0-|
---|-(0)-------------|-(0)----------|-2-------2---2---|-2-------2---0---|
---|-(2)-------------|--------------|-----------------|-----------------|
---|-(3)-------------|--------------|-----------------|-----------------|
Does anybody here re - member Vera       Lynn?


  C                 D                  G      D/F#      C
|-------0---------|-------2---------|-(3)----(2)------|-----------------|
|-----1---1-------|-----3---3-------|-(3)----(3)------|-------1---------|
|---0-------0-----|---2-------2---0-|-(0)----(2)------|-----0---0-------|
|---------------2-|-0-----------0---|-(0)----(0)------|---2-------2---2-|
|-3-----------3---|-----------------|-(2)----(0)------|-3-----------3---|
|-----------------|-----------------|--3------2-------|-----------------|
      Remember      how she said      we would meet    again some sunny


   Em                Em
|-(0)-------------|-(0)-------------|
|-(0)-------------|-(0)-------------|
|-(0)-------------|-(0)-------------|
|-(2)-------------|-(2)-------------|
|-(2)-------------|-(2)-------------|
|--0--------------|-(0)-------------|
 day


  Em                  Em                      Em
|-------------------|----------------------|-(0)---------------|
|-5---5/8---7---5---|-5/10---10/13---------|-(8)---------------|
|---0-----0---0---0-|------0-------0-------|-(9)---------------|
|-2---2/5---4---2---|-2/7-----7/10---9-----|-(9)---------------|
|-------------------|----------------------|-(7)---------------|
|-------------------|----------------------|-(0)---------------|


                                     2/4          4/4
  Am7               D                 Em7          C
|-3---------------|-2---------------|-(3)--------|-0-----0-3-0-----|
|-1---------------|-3---------------|-(3)--------|-1---------------|
|-0---------------|-2---------------|-(0)--------|-0---------------|
|-2---------------|-0---------------|-(2)--------|-2-------------0-|
|-0---------------|-----------------|------------|-3-----------3---|
|-----------------|-----------------|------------|-----------------|


             5/4         4/4
   Em          Em          G           G           D           D
|-(0)-------|-(0)-------|-(3)-------|-(3)-------|-(2)-------|-(2)-------|
|-(0)-------|-(0)-------|-(0)-------|-(0)-------|-(3)-------|-(3)-------|
|-(0)-------|-(0)-------|-(0)-------|-(0)-------|-(2)-------|-(2)-------|
|-(2)-------|-(2)-------|-(0)-------|-(0)-------|-(0)-------|-(0)-------|
|--2--------|-(2)-------|-(2)-------|-(2)-------|-----------|-----------|
|-(0)-------|-(0)-------|-(3)-------|-(3)-------|-----------|-----------|
                         Vera,       Vera        What has become of


  Em7               D                 C                 D
|-----------------|-------0---------|---------0-------|-----------------|
|-3---------------|-----0-----------|-------1---1-----|-----3---0-1-2-3-|
|-0---------------|---0-------0---0-|-----0-----------|---2-------------|
|-0-----------2---|-2-------2---0---|---2-----------2-|-0-----0---------|
|-2---------------|-----------------|-3-----------3---|-----------------|
|-0---------------|-----------------|-----------------|-----------------|
 you?                                    Does anybody else in here


  G       D/F#      C                  Em                Em
|-3-----3-2-3-2---|-------0---------|-(0)-------------|-(0)-------------|
|---0-----------3-|-----1---1-------|-(0)-------------|-(0)-------------|
|-----0-----------|---0-------0-----|-(0)-------------|-(0)-------------|
|-----------------|---------------0-|--2--------------|-(2)-------------|
|-----------------|-3-----------2---|-(2)-------------|-(2)-------------|
|-3-------2-------|-----------------|-(0)-------------|-(0)-------------|
 feel the way I do?
Rate this tab: 1 Star2 Stars3 Stars4 Stars5 Stars (3 votes, average: 4.67 out of 5)
Tab filed under: The Wall, Guitar Tabs
Lyrics for This Tab: Vera Lyrics by Pink Floyd

Talk about Vera Guitar Tab

Comment on This Tab

Vera Related Tabs