Pink Floyd Guitar Tabs and More @ PinkFloydTabs.com

What Do You Want from Me Tab

What Do You Want from Me Backing Track:

Audio clip: Adobe Flash Player (version 9 or above) is required to play this audio clip. Download the latest version here. You also need to have JavaScript enabled in your browser.

What Do You Want from Me Backing Track (ver 2):

Audio clip: Adobe Flash Player (version 9 or above) is required to play this audio clip. Download the latest version here. You also need to have JavaScript enabled in your browser.


What Do You Want From Me Tab - Pink Floyd
  
----------------------------------|---------------------------------|
--15b---17~-L----L------(17)-(17)-|--(17)\-----------------12--15b--|
----------------------------------|-------------------14b-----------|
----------------------------------|---------------------------------|
----------------------------------|---------------------------------|
----------------------------------|---------------------------------|

 
---------------------------------------------|
--15br~----L--L-12-15------------------------|
-----------------------14b--14--12b----------|
-------------------------------------14--12--|
---------------------------------------------|
---------------------------------------------|

  
---------------------------------|--------------------------------------|
-------------------x-15---L-15---|-15----15----15----15----15--15---15--|
-------------------x-14b--L-14b--|-14b---14b---14b---14b---14b-14b--14b-|
--14s----L-(5)-------------------|--------------------------------------|
---------------------------------|--------------------------------------|
---------------------------------|--------------------------------------|


-----------------------12---------------------|
--------------------12----15p-12--------------|
--14p-12-------14b---------------14br-L-12----|
-----------14------------------------------14-|
----------------------------------------------|
----------------------------------------------|


                                                     
--------------------------------------|---------------------|-----------|
--------------------------------------|---------------------|-----------|
-----------------14b--L-12-14----12b--|--L--L---------------|-----------|
--14s----(2)------------------14------|---------------------|-----------|
--------------------------------------|---------------------|-----------|
--------------------------------------|-------------12------|-----------|

   
-----------------------------------|----------------------|
-----------------------------------|----------------------|
-----2br--L--0--<>2~--0------------|----------------------|
-------------------------2p-0h-2~--|--L-------------------|
-----------------------------------|-------2--------------|
-----------------------------------|----------------------|


      
--------------------------|-------12---------------|
--0--0--------------------|-------15b--------------|
--0--0----0--2p-0---------|------------------------|
--2--2--------------------|------------------------|
--------------------------|------------------------|
--------------------------|------------------------|


  
--------------------------------|-----------------x--x-x-x-x-x-x-|
------15----15--15-----15-------|-----------------x--x-x-x-x-x-x-|
------14b---14b-14b----14b--12--|--------------------------------|
--------------------------------|--14s-----L---12----------------|
--------------------------------|--------------------------------|
--------------------------------|--------------------------------|


--------------------------|-----------------------|---------------------|
--------------------------|-----------------------|---------------------|
--------2--2--x--2--------|-----------------------|---------------------|
--2---2-2--2--x--2--------|-----------------------|--2-----------L------|
--0---0-0--0--x--0-----0--|--0~--------0----------|--0-----------L------|
--------------------------|---------------3b------|-----------------0-0-|

 
----------------------|----------------------------------|
----------------------|--x----------0--------------------|
----------------------|-----2b--2b-----2br--L--2p-0------|
--2--------L----------|-----------------------------2p-0-|
--0--------L--7\------|----------------------------------|
----------------------|----------------------------------|

   
-------------12---------12--------|-------------------------------------|
-------------15b--(17)--15pbr--L--|-------------------------------------|
----------------------------------|----14br--L--12--14br--L-L-12b-------|
--2~------x-----------------------|--------------------------------14~--|
----------------------------------|-------------------------------------|
----------------------------------|-------------------------------------|


----------------------|-----------------------|-------------------------|
----------------------|-----------------------|-------------------------|
----------------------|-----------------------|-------------------------|
--L-------------------|--2--------------x-----|--2----------------------|
----------------------|--0------------0-x--0--|--0------0---------------|
---------------12\----|-----------------------|-------------------------|


-------|------------------|-----------x-x-x-x---------|-----------------|
-------|------------------|-----------x-x-x-x--4------|-----------------|
-------|------------------|-----------x-x-x-x--4------|-----------------|
-------|------------------|-------------------(4)~----|--4--------6-----|
-------|------------------|---------------------------|-----------------|
-------|--2---------------|--L------------------------|--2--------4-----|


--------------------|------------------------|
--------------------|------------------------|
--------------------|------------------------|
--7--------9--------|--10------------10/-----|
--------------------|------------------------|
--5--------7--------|---8-------------L------|


  
-------------12--15-12--------------|---------------x---------|
-----15b~--------------15b--15b~----|--L----\12-----x---------|
------------------------------------|-------------------------|
------------------------------------|-------------------------|
------------------------------------|-------------------------|
------------------------------------|-------------------------|

    
-----------------------|------------------------|
-----------------------|--15---------------L----|
-----------------------|--14br~------------L----|
-----------------------|------------------------|
-----------------------|------------------------|
-------12\-------------|------------------------|

  
---------------------------------------|--------------------17b--17b--|
--L----15-----15-----15-----15----L--L-|----------------x-x-----------|
--L----14b----14b----14b----14br--L-12-|----------------x-x-----------|
---------------------------------------|--14~--------L----------------|
---------------------------------------|------------------------------|
---------------------------------------|------------------------------|


--17b------19\------------3p-0-|-------0--L--L----L---------------|
--------------------------3p-0-|-------0--L--L----L----12-12---12-|
---------------------2g4-------|--4g2--0h-2p-0----L----12-12---12-|
-------------------------------|-----------------------12-12---12-|
-------------------------------|----------------------------------|
-------------------------------|----------------------------------|

  
--12---------L--------------|----------------------------------------|
--12---------L------15b--L--|--15g17--17br----L--15--17--------------|
--12~--------L--------------|----------------------------16g14--12b--|
----------------14----------|----------------------------------------|
----------------------------|----------------------------------------|
----------------------------|----------------------------------------|

       
-------------------------|--------------------|--12/-------------------|
-------------------------|--------------------|------------------------|
-------------------------|--------------------|------------------------|
--14~--------------------|--------------------|------------------------|
-------------------------|--------------------|------------------------|
-------------12\---------|--0~----------------|------------------------|


----------------------------------|------------------------------------|
-----12----12---12---12-12--12-12-|--x-x-12-x-x-12-x-x-12---12-12--12--|
-----12----12---12---12-12--12-12-|--x-x-12-x-x-12-x-x-12---12-12--12--|
-----12----12---12---12-12--12-12-|--x-x-12-x-x-12-x-x-12---12-12--12--|
----------------------------------|------------------------------------|
----------------------------------|------------------------------------|


-----------|----------|-------------12----12--------12-12---------------|
-----------|----------|----------12----15--------12-------15p-12-----12-|
-----------|----------|-----14b--------------14b-----------------14b----|
-----------|----------|-------------------------------------------------|
-----------|----------|-------------------------------------------------|
-----------|----------|-------------------------------------------------|


--12-12-------------------------------------|----------------------|
--------15p-12------------------------------|----------------------|
---------------14b-L-12----14--12-----------|----------------------|
------------------------14------------------|----------------------|
--------------------------------------------|--0---------------0-0-|
-----------------------------------12-0-3b--|----------------------|

  
-------------------|-------------------------|--------------------------|
-------------------|-------------------------|--------------------------|
-------------------|-------------------------|---------0--2-2---0-0--0--|
-------------------|-------------------------|--2------0--2-2---0-0--0--|
--0----------------|--0--0-----0--0----0--0--|--L---------0----------x--|
-------------3b----|--------3----------------|-----------------------3--|

       
-----------------------|-----------------------------|------------------|
-----------------------|----------------------4--x-4-|------------------|
-----------------------|----------------------4--x-4-|------------------|
--4------4-4-4------4--|--4---4-4--4--4-4-4-4-4--x-4-|--4--------6------|
-----------------------|-----------------------------|------------------|
--2------2-2-2------2--|--2---2-2--2--2-2-2-2--------|--2--------4------|


--------------------|------------------|-------x----x-------------------|
--------------------|------------------|-------x----x-----19--L--19s-17-|
--------------------|------------------|-------x----x-------------------|
--7--------9--------|--10~-------------|--L--------17s-19--L--L--19s-17-|
--------------------|------------------|--------------------------------|
--5--------7--------|---8--------------|--L-----------------------------|


-----------------|-------------------0-0--|------0-0---0----------------|
--17-------------|--L----------------3-3s-|--5---5-3---3----------------|
-----------------|------------------------|--------------4g2--0---------|
--17-------------|--L---------------------|----------------------2p--0--|
-----------------|------------------------|-----------------------------|
-----------------|-----------17\----------|-----------------------------|

   
-----------------------------|-------------------------------|
-----------------------------|-------------------x--15--15b--|
-----------------0--2b--2p-0-|--2p-0-------------------------|
--2~------0------------------|-------2~--L----L--------------|
-------------3b--------------|-------------------------------|
-----------------------------|-------------------------------|

                                       
-----------------------|----|----|----|----||-----|----|----|----|----|
--L--------\(5)--------|----|----|----|----||-----|----|----|----|----|
-----------------------|----|----|----|----||*----|----|----|----|----|
-----------------------|----|----|----|----||*----|----|----|----|----|
-----------------------|----|----|----|----||-----|----|----|----|----|
-----------------------|----|----|----|----||-----|----|----|----|----|


----|-----||----|---------------------|------------------4--4-4-|
----|-----||----|---------------------|------------------4--4-4-|
----|----*||----|---------------------|------------------4--4-4-|
----|----*||----|--(4)----------------|--L--------4--x-x--------|
----|-----||----|---4-----------------|--L--------4--x-x--------|
----|-----||----|---2-----------------|--L--------2--x-x--------|

                
--------------------|--------------------|---------------------|
--------------------|--------------------|---------------------|
--------------------|--------------------|---------------------|
--4--------6--------|--7--------9--------|--10-----------------|
--------------------|--------------------|---------------------|
--2--------4--------|--5--------7--------|---8~----------------|

               
-------x---------------------------|--------------------|
-------x--0---------19--L--17s-19s-|--17----------------|
----------0------------------------|--------------------|
--L----------17s-19--L--L--17s-19s-|--17----------------|
-----------------------------------|--------------------|
--L--------------------------------|--------------------|

              
------------------------|-------------------||
------------------------|-------------------||
------------------------|-------------------||
------------------------|-------------------||
-----------3--2--0------|-------------------||
--------------------3b--|--0----------------||
Rate this tab: 1 Star2 Stars3 Stars4 Stars5 Stars (1 votes, average: 5.00 out of 5)
Tab filed under: The Division Bell, Guitar Tabs
Lyrics for This Tab: What Do You Want from Me Lyrics by Pink Floyd

Talk about What Do You Want from Me Guitar Tab

Comment on This Tab

What Do You Want from Me Related Tabs