Pink Floyd Guitar Tabs and More @ PinkFloydTabs.com

Young Lust Tab


Available Video Lesson

Available Backing Tracks

Young Lust Backing Track:

Audio clip: Adobe Flash Player (version 9 or above) is required to play this audio clip. Download the latest version here. You also need to have JavaScript enabled in your browser.

Young Lust Backing Track (ver 2):

Audio clip: Adobe Flash Player (version 9 or above) is required to play this audio clip. Download the latest version here. You also need to have JavaScript enabled in your browser.


Young Lust Tab - Pink Floyd

both - Dave Gilmour dist electric tuned - E A D G B E
Gtr I - 'rhythm'
Gtr II - 'lead'

            Verse 1
  Q=95
  4/4
  Gtr I
                       ~~~~~~~~~~~~                         ~~~
  S S  E     Q  S S E +H       +H     +E  E Q    E E S S E +H
|---------||-----------------|-----------------|------------------|
|---------||--------3-(3)----|-(3)----(3)------|---------3-(3)----|
|---------||----2s4----------|------------2-2--|-----2s4----------|
|---------||-----------------|------------2-2--|---2--------------|
|---------||-----------------|------------0-0--|-2-2--------------|
|-x-x-12\-||-0---------------|-----------------|-0----------------|


                         ~~~              ~~~~~~~
  +H     +S  s S    +S  +Q     E E S S E +H
|----------------------------|------------------|
|-(3)----(3)-----------------|---------3-(3)----|
|------------x-2b4==(4)r(2)--|-----2s4----------|
|----------------------------|------------------|
|----------------------------|------------------|
|----------------------------|-0-0--------------|


 ~~~~~                        ~~~~~
  +H     +S  s  S      +S    +Q
|-----------------------------------|
|-(3)----(3)------------------------|
|------------x-[2]b4==([4])r([2])---|
|-----------------------------------|
|-----------------------------------|
|-----------------------------------|


                                    Pre-Chorus
             ~~~~~~~~~~~~              PM|   PM|   PM--|   PM|
  E E S S E +H       +H.      E E    E S S E S S S S S S E S S
|------------------|--------------||---------------------------|
|---------3-(3)----|-(3)------0---||---------------------------|
|-----2s4----------|--------------||---------------------------|
|------------------|--------------||---------------------------|
|------------------|------------0-||-5-----7-----5-5-5-5-7-----|
|-0-0--------------|------------2-||-3-3-3-3-3-3-3-3-3-3-3-3-3-|


                                                           |-3-|
  E S S E S S E S S S S S S   Q  S S E +H       +H     +E  S S S  Q
|---------------------------|-----------------|------------------------|
|---------------------------|--------3-(3)----|-(3)----(3)-------------|
|---------------------------|----2s4----------|------------x-x-x-------|
|---------------------------|-----------------|------------x-x-x-------|
|-5-x-x-7-x-x-5-x-x-7---x-x-|-----------------|------------x-x-x-------|
|-3-x-x-3-x-x-3-x-x-3---x-x-|-0---------------|------------x-x-x-10\---|


 Chorus 1
  H.      +S  E S   H.      E E    H.      +S  E s   H    S E. S E.
|-----------------|--------------|-----------------|----------------|
|-----------------|--------------|-----------------|----------------|
|-5-------(5)-5---|-5---------5\-|-4-------(4)-4---|----------------|
|-7-------(7)-7---|-7---------7\-|-5-------(5)-5---|-5----5----6----|
|-7-------(7)-7---|-7---------7\-|-5-------(5)-5---|-5----5-5--6-6--|
|-5-------(5)-5---|-5---------5\-|-3-------(3)-3-3-|-3------3----4--|


                                                     |-3-|
  H.      +E. S   H.      S S E    W          +H     E E E  E.     +S
|---------------|----------------|----------|---------------------------|
|---------------|----------------|----------|----------x---15b17==(17)\-|
|-5-------(5)-5-|-5-------5-5----|----------|--------x-x-0--------------|
|-7-------(7)-7-|-7-------7-7----|----------|--------x------------------|
|-7-------(7)-7-|-7-------7-7----|----------|---------------------------|
|-5-------(5)-5-|-5-----------5\-|-0--------|-(0)-----------------------|


 Verse 2
             ~~~~~~~~~~~~                       ~~~~~~
  E e S S E +H       +H     S E. S E.   E e S S E +H
|------------------|--------x-2-------|------------------|
|---------3-(3)----|-(3)----x-3--x-2--|---------3-(3)----|
|-----2s4----------|--------x-2--x-2--|-----2s4----------|
|------------------|--------x-0--x-2--|------------------|
|------------------|-------------x-0--|------------------|
|-0-0--------------|------------------|-0-0--------------|


   ~~~                               ~~~~~~~~~~~~~~~
  +H     S   S S S S   S E   E e S S E +H       +H     S E S Q
|--------------0-----------|------------------|------------------|
|-(3)--------0---3---------|---------3-(3)----|-(3)--------------|
|--------2b4-------2b4r2-0-|-----2s4----------|--------x-2---2---|
|--------------------------|---2--------------|--------x-2---2---|
|--------------------------|------------------|--------x-0-x-0---|
|--------------------------|-0----------------|------------------|


                                          ~      PM
  E E E E E   E S S S S   S S S S S S S S Q  s S E
|-----------------------|---------------------------||
|-----------------------|---------------------------||
|-----0-2-2b3-2-2p0-----|----------------------0----||
|---2---------------2p0-|-2p0-------------2--2-0----||
|-----------------------|-----2p0-1p0------------2h=||
|-0---------------------|-------------3p0--------0h=||


 Pre-Chorus
    PM  PM|   PM|   PM|     PM  PM|   PM|   PM|            ~~~~~~
  E E E S S E S S E S S   E E E S S E S S S S E    E e S S E +H
|-----------------------|------------------------|------------------|
|-----------------------|------------------------|---------3-(3)----|
|-----------------------|------------------------|-----2s4----------|
|-----------------------|------------------------|---2--------------|
|-5---7-----5-----7-----|-5---7-----5-----7-5----|------------------|
|-3-3-3-3-3-3-3-3-3-3-3-|-3-3-3-3-3-3-3-3-3-3-7\-|-0----------------|


                          Chorus
                                           PM
             |-3-|
  +H     +E  S S S  Q      H.      +S  S S S
|-----------------------||-------------------|
|-(3)----(3)------------||-------------------|
|------------x-x-x------||-5-------(5)-5-----|
|------------x-x-x------||-7-------(7)-7-----|
|------------x-x-x------||-7-------(7)-7-----|
|------------x-x-x-17\--||-5-------(5)-----5-|


                             PM|   PM--|
  H    +S  S S S E. S   Q  E S S S S S S E S S
|---------------------|--------------------------|
|---------------------|--------------------------|
|-5----(5)-5-----5----|--------------------------|
|-7----(7)-7-----7--7-|--------------------------|
|-7----(7)-7-----7--7-|-5--7-----5-------7-x-x---|
|-5----(5)-----5-5--5-|-3--3-3-3-3-3-3-3-3-x-x---|


    PM----|    PM
                                  |-3-|
  E E e E s E. S E.   H.      +E  S S S   H.      +S  E.   W
|-------------------|-------------------|----------------|------|
|-------------------|-------------------|----------------|------|
|-------------------|-------------5-5-5-|-5-------(5)-5\-|------|
|-----------5----6--|-7-------(7)-7-7-7-|-7-------(7)-7\-|-2----|
|-5-5-7-5---5----6--|-7-------(7)-7-7-7-|-7-------(7)-7\-|-2----|
|-3-3-3-3-3-3--4-4--|-5-------(5)-5-5-5-|-5-------(5)-5\-|-0----|


  Gtr II
                             PM
   S  S S S E E E       E    e    E
|-------------------------------------||
|-------------------------------------||
|-------------------------------------||
|---------------5b5.5---5----7----7b9-||
|-----x-2s5-5-7-----------------------||
|-------------------------------------||

  Gtr I
  +H            S     E   S  Q
|-------------------------------------||
|---------------------------15b17-----||
|---------------------0---------------||
|-(2)-----------x-----0---x-----------||
|-(2)-----------x---------x-----------||
|-(0)---------------------------------||


 Guitar Solo
  ~~
  H.         +E  S S     Q     Q  Q  S  S       E
|--------------------|-------------------------------|
|--------------------|---------------x-15------15----|
|--------------------|-------------------------------|
|-5----------(5)-x-x-|--[7]b9------------------------|
|----------------x-x-|-------------------------------|
|--------------------|-------------------------------|
|
|      ~~~
| Q    H.               +Q     Q  Q  S  E          S
|--------------------|-------------------------------|
|-----12-------------|-(12)--------------------------|
|-----12-------------|-(12)------------12b12.5-------|
|-----12-------------|-(12)----------x-12b12.5----12-|
|--------------------|-------------------------------|
|--------------------|-------------------------------|


                                                    ~~~~~~~~
   E  E      +E   +E   E     +E   E     +E      S   E.  +E  E Q   E  S  S
|-------------------------------------------|---------------------12----|
|-15-15---------------15---------15---------|---------------------14h15-|
|----14b16==(16)r(14)-14b16r(14)-14b16r(14)-|--12-----------------------|
|-------------------------------------------|------14--(14)-x-----------|
|-------------------------------------------|---------------------------|
|-------------------------------------------|---------------------------|
|
|  PM|        ~~~~~~~~~~~~~~~~~~~~~~~~~~~~~~~~~~~~~
|  e  e       H.                               +H.                Q
|-------------------------------------------|---------------------------|
|------------12-----------------------------|-(12)----------------------|
|------------12-----------------------------|-(12)-------------14-------|
|------------12-----------------------------|-(12)-------------14-------|
|-------------------------------------------|---------------------------|
|--0--0-------------------------------------|---------------------------|


                                          
   E      E  E   E      E  E   E      E  
|-12-----12-12--12-----12-12--12-----12--|
|-15b17==15-15r-15b17==15-15r-15b17==15r-|
|----------------------------------------|
|----------------------------------------|
|----------------------------------------|
|----------------------------------------|

             |---3---|
    E      E  S  +S   S  E       +E   Q   E
-12-----12------------15b17===(17)r-------|
-15b17==15-15r(15)p12---------------15b17-|
------------------------------------------|
------------------------------------------|
------------------------------------------|
------------------------------------------|

   PM----|   ~~~~~~~~~~~~~~~~~~~~~~~~~~~~~~~~~~~~~~
   e      e  H.                             +H                 E  E        Q
|------------------------------|----------------------------------------|
|-----------12-----------------|-(12)-----------------------------------|
|-----------12-----------------|-(12)-------------14b14.5--14-----------|
|-----------12-----------------|-(12)-------------14b14.5--14-----------|
|------------------------------|----------------------------------------|
|--0------0--------------------|----------------------------------------|


                                ~~~~
   +E.  +S   S  S  S      +S   +Q    +E   S  S
|----------------------------------------------|
|-(17)r(15)-15p12------------------------------|
|-----------------14b16==(16)r(14)--(14)-12-14-|
|----------------------------------------------|
|----------------------------------------------|
|----------------------------------------------|
|
|            ~~~                      ~~~~
|   Q        Q                  Q     Q
|----------------------------------------------|
|-----------------------------------(10)-------|
|------------9-----------------------10--------|
|------------9-----------------------10--------|
|----------------------------------------------|
|----------------------------------------------|


   Q       +E   +S   S   Q.             +E
|-----------------------------------------|
|-----------------------------------------|
|-14b16===(16)r(14)-12-[14]b16=======(16)-|
|-----------------------------------------|
|-----------------------------------------|
|-----------------------------------------|

    E   E  e       e   s       s  e  e       e
-----------------------------------------|
-----------------------------------------|
---------------(12)b12.5p0-14-12b12.5-14-|
----12b12.5-14---------------------------|
/14--------------------------------------|
-----------------------------------------|

           ~~~~~                                 PM         PM             PM         PM
   Q        Q            Q         Q          E   e  E       e   E          e  E       e
|-------------------------------|---------------------------------------|
|-------(11)---------(12)\------|---------------------------------------|
|--------11-----------12\-------|---------------------------------------|
|--------11-----------12\-------|---------------------------------------|
|-------------------------------|-5------7--------5----------7----------|
|-------------------------------|-3---3--3----3---3-------3--3-------3--|


                            ~~                 ~~~~
   E       e  E  S     +S   Q    E     +E     +H.               S  S  S    S
|------------------------------------------|--------------x-15-15---15--|
|------------------------------------------|--------------x-15-15---15--|
|-12b12.5-14-14-14b16-(16)-12---14b16r(14)-|-(14)-----------------------|
|------------------------------------------|----------------------------|
|------------------------------------------|----------------------------|
|------------------------------------------|----------------------------|
|
|          PM    PM           PM        PM
|  E       e  E  e          E e  E      e      Q.   S   +S  Q.        S   +S
|---------------------------------------|-------------------------------|
|---------------------------------------|-------------------------------|
|---------------------------------------|---2------------2--------------|
|---------------------------------------|---2------------2--------------|
|--5----------7----------5----7------5--|---0------------0--------------|
|--3-------3--3--3-------3-3--3------3--|--------3b4-(4)--------3b5-(5)-|


   e  e          e      e          E       E        E       E
|-15-15---------15-----15---------15------15-------15----------|
|-15-15pb16-----15pb17-15pb16-----15pb17==15r------15b17r==15--|
|--------------------------------------------------------------|
|--------------------------------------------------------------|
|--------------------------------------------------------------|
|--------------------------------------------------------------|
|
|  E  S     +S   E      S     +S   E       S   +S   S    S  E
|--------------------------------------------------------------|
|--------------------------------------------------------------|
|--2-------------2-----------------2---------------------------|
|--2-------------2-----------------2---------------------------|
|--0-------------0-----------------0----------------2p===0-----|
|-----3b4---(4)---------3b4---(4)----------3b4-(4)----------3--|


   ~~                ~~~~
   Q   E     +E     +Q    E S 
|----------------------------|
|-15--15b17r(15)-(15)-x-x-12-|
|----------------------------|
|----------------------------|
|----------------------------|
|----------------------------|

 S    S  S  S  S  S     +S   S  S  S  S    S  S  E  S  
-----------------------------------------------------|
-15p12----12-----------------------------------------|
-------14----14b16r(14)-12---14-12b12.5--------------|
---------------------------14----------14-12---------|
--------------------------------------------14\------|
-----------------------------------------------3s(4)-|

|             PM        PM  PM          
|  Q   E      S  S   E  e E E       
|--------------------------------|
|--------------------------------|
|--------------------------------|
|--------------------------------|
|------7-------------5----7-5----|
|--3---3------3--3---3--3-3-3----|

-------------------------------------------------|
-------------------------------------------------|
-------------------------------------------------|
--5-----------7-------------5--------------7--5--|
--3-----3-----3-------3-----3--------3-----3--3--|

  ~~               PM--|
  H            +E  S    S   E  S   +S
|---------------------------------------|
|---------------------------------------|
|---------------------------------------|
|---------------------------------------|
|--------------------------(5)----------|
|-5------------(5)-x----x------3b5-(5)--|

| Q.   S   +S   E  S   +S   E  S   +S
|---------------------------------------|
|---------------------------------------|
|-2-------------2-----------2-----------|
|-2-------------2-----------2-----------|
|-0-------------0-----------0-----------|
|------3b4-(4)-----3b4-(4)-----3b4-(4)--|


  E S   +S  E e       E   E       E     +E
|-------------------------------------------|
|-------------------------------------------|
|-------------------------------------------|
|-------------------------------------------|
|-------------------------------------------|
|-5-3b5-(5)-5-3-------5b7---------3b5r==(3)-|
|
| E S   +S  E S   +S  E   S   +S  S   S  E
|-------------------------------------------|
|-------------------------------------------|
|-2---------2---------2---------------------|
|-2---------2---------2---------------------|
|-0---------0---------0-----------2p==0-----|
|---3b4-(4)---3b4-(4)-----3b4-(4)--------3--|


                PM|                       ~~~~~~~~~~~
  H         +E  S S E E    E  S S S S S S Q  +S  +E.
|-----------------------|----------------------------|
|-----------------------|----------------------------|
|-----------------------|----------------------------|
|-----------------------|----------------------------|
|---------------x-x-5-5-|--5--5p0-x-5p0-x-7--(7)-(7)-|
|-0---------(0)---------|----------------------------|

       
  E e S S E +H            +H.                 Q
|-----------------------|----------------------------|
|---------3-(3)---------|-(3)------------------------|
|-----2s4---------------|----------------------------|
|---2-------------------|----------------------------|
|-----------------------|----------------------------|
|-0---------------------|--------------------12\-----|


 Chorus
  Gtr I
                  PM
  H.      +S  S S S   H.      +S  E.
|-------------------|----------------|
|-------------------|----------------|
|-5-------(5)-5-x---|-5-------(5)-5\-|
|-7-------(7)-7-x---|-7-------(7)-7\-|
|-7-------(7)-7-x-7-|-7-------(7)-7\-|
|-5-------(5)-----5-|-5-------(5)-5\-|


    PM  PM|   PM--|   PM|     PM|   PM|   PM
  E e E s s S S s s E s s   E s s E s s s E. s E S
|-------------------------|------------------------|
|-------------------------|------------------------|
|-------------------------|------------------------|
|-------------------------|---------------5----6-6-|
|-5---7-----5-5-----7-----|-5-----7-----5-5--6-6-6-|
|-3-3-3-3-3-3-3-3-3-3-3-3-|-3-3-3-3-3-3-3-3--4-4-4-|


              PM
                                              |----3-----|  |---3----|
  H.      s e s   H.      S E.   W    +H      E     +E   E  E     E  E
|---------------|-------------------|-------------------------------12--|
|---------------|-------------------|--------15b17r(15)p12-------12-----|
|-----------5---|-5---------5\------|----------------------14b16--------|
|-7-------7-7---|-7---------7\------|-----------------------------------|
|-7-------7-7---|-7-------x-7\------|-----------------------------------|
|-5-------5---5-|-5-------x---------|-(0)-------------------------------|


 Outro
begin fade - with telephone effect
            ~~~~~~~~~~~~                      PM    ~~~~~~
  Q  S S E +H       +H     +S  S E +S  E.   E E S S E +H
|-----------------|-----------------------|------------------|
|--------3-(3)----|-(3)----(3)---2-(2)-2--|---------3-(3)----|
|----2s4----------|--------------2-(2)-2--|-----2s4----------|
|-----------------|------------x-2-(2)-2--|------------------|
|-----------------|------------x-0-(0)-0--|------------------|
|-0---------------|-----------------------|-0-0--------------|


   ~~~                          ~~~~~~~~~~~~                 ~~~
  +H     S E. S E.   E e S S E +H       +H     S s S    +S  +Q
|----------2-------|------------------|--------------------------|
|-(3)----x-3-------|---------3-(3)----|-(3)----------------------|
|--------x-2--x-2--|-----2s4----------|--------x-x-2b4==(4)r(2)--|
|--------x-0--x-2--|------------------|--------x-x---------------|
|-------------x-0--|------------------|--------------------------|
|------------------|-0-0--------------|--------------------------|


             ~~~~~~~~~~~~                                        ~~~
  E e S S E +H       +H      E      +E   E      +E    E e S S E +H
|------------------|--------------------------------|------------------|
|---------3-(3)----|-(3)----15----------12----------|---------3-(3)----|
|-----2s4----------|--------14pb16r(14)-14pb16r(14)-|-----2s4----------|
|------------------|--------------------------------|------------------|
|------------------|--------------------------------|------------------|
|-0-0--------------|--------------------------------|-0-0--------------|


  |3|
  E S E   +E  E S S S S S S S S
|-------------------------------|
|-x-----------------------------|
|---0-2b4r(2)-0-----------------|
|---------------2p0-------------|
|-------------------2p0-1p0-----|
|---------------------------3p0-|


             ~~~~~~~~~~~~
  E e S S E +H       +Q.   S S  S  S   E  a Q
|------------------|-------x-0-(0)(0)-(0)-------|
|---------3-(3)----|-(3)---x-3---------5--3s5\--|
|-----2s4----------|------------2s=4------------|
|---2--------------|----------------------------|
|------------------|----------------------------|
|-0----------------|----------------------------|


             ~~~~~~~~~~~~
  E e S S E +H       +Q.    s s  S     +S   E  E.     +S
|------------------|-------12--------------12-------------|
|---------3-(3)----|-(3)------x-15b17-(17)----15pb17r(15)-|
|-----2s4----------|--------------------------------------|
|------------------|--------------------------------------|
|------------------|--------------------------------------|
|-0-0--------------|--------------------------------------|


             ~~~
  E e S S E +H       +E  e S q  S q  E
|------------------|--------------------*|
|---------3-(3)----|-(3)----------------*|
|-----2s4----------|--------------------*|
|------------------|-----2---2----2-----*|
|------------------|-----2---2----2-----*|
|-0-0--------------|-----0---0----0-----*|
Rate this tab: 1 Star2 Stars3 Stars4 Stars5 Stars (2 votes, average: 5.00 out of 5)
Tab filed under: The Wall, Guitar Tabs
Lyrics: Young Lust Lyrics by Pink Floyd @ Pink Floyd Lyrics .com

Talk about Young Lust Guitar Tab

Comment on This Tab


× nine = 72

Young Lust Related Posts